Cifra Club

Survival

Eminem

Cifrado: Principal (guitarra y guitarra eléctrica)
tono: D
Intro: (É tocada algumas vezes durante a música.) 

E|---------------------------------------|
B|---------------------------------------|
G|---3----------3---------3------------7^|
D|-----5--3--5----5--3--5----5--3--5-----|
A|---------------------------------------|
E|---------------------------------------|

Power Chords(Riff):

E|---------------------------------------|
B|---------------------------------------|
G|------------------3--3----5--7---7-----|
D|---5----3---------3--3----5--7---7-----| 4x 
A|---5----3---------1--1----3--5---5-----|
E|---3----1------------------------------|

(Intro)
Compositor no encontrado.
Colaboración y revisión:
  • Arthur Bernardo
39 vistas
    • ½ Tono
    • A
    • Bb
    • B
    • C
    • Db
    • D
    • Eb
    • E
    • F
    • F#
    • G
    • Ab
  • Agregar a la lista

    0 comentarios

    Ver todos los comentarios

    ¿Lograste tocar?

    1 Tocaron 0 Aún no

    ¡Graba un video tocando Survival y envíanoslo!

    00:00 / 00:00
    Otros videos de esta canción
    Repetir Calidad Automático
    Otros videos de esta canción
    00:00 / 00:00
    Automático
    OK