Cifra Club

Under The Influence

Eminem

Cifrado: Principal (guitarra y guitarra eléctrica)
tono: B
|--------------------------|
|--------------------------|
|--------------------------|
|---3-1---1-3-4-3-1--------|
|-------1-----------1-2-2-1|
|--------------------------|

|--------------------------|
|--------------------------|
|-------------------3-4-4-3|
|---3-1---1-3-4-3-1--------|
|-------1------------------|
|--------------------------|

Composición de Marshall Mathers / R. Arthur Johnson
Colaboración y revisión:
  • joao fonseca
49 vistas
    • ½ Tono
    • A
    • Bb
    • B
    • C
    • Db
    • D
    • Eb
    • E
    • F
    • F#
    • G
    • Ab
  • Agregar a la lista

    0 comentarios

    Ver todos los comentarios

    ¿Lograste tocar?

    0 Tocaron 0 Aún no

    ¡Graba un video tocando Under The Influence y envíanoslo!

    00:00 / 00:00
    Outros vídeos desta música
    Repetir Calidad Automático
    Outros vídeos desta música
    00:00 / 00:00
    Automático
    OK