Cifra Club

Sentirme vivo

Emmanuel

Cifrado: Principal (guitarra y guitarra eléctrica)
tono: G
    G   C   Em  Am  D
E|---3---0---0---0---2|
B|---3---1---0---1---3|
G|---0---0---0---2---2|
D|---0---2---2---2---0|
A|---2---3---2---0---0|
E|---3---0---0---0---0|

p : pulgar de la mano derecha.
i : indice
m : medio
a : anular

PATRON BABC O :

E|--------a--------|
B|------| m---m------|
G|----| i-------i----|
D|-----------------|
A|-p*--------------|
E|-----------------|

* el pulgar toca la 4, 5 y 6 cuerda, de ser el caso.


EL INTRO PUEDE SER CUALQUIER DE ESTAS C S, DEPENDE DE USTEDES.

INTRO 1

E|------3-----3------3------3---3--3--|
B|-----3-----3-3----3-3----3-3---3----|
G|----0-----0---0--0---0--0---0---0---|
D|---0--------------------------------|
A|--2------2-------------2------------|
E|-3--------------3-------------------|

   G       G      G      G

INTRO 2

E|------3---|
B|-----3----|
G|----0-----|
D|---0------|
A|--2-------|
E|-3--------|

   G

ESTROF 

E|------------3--------0-----------------0-|
B|-----------3--------1-----------------0--|
G|----------0--------0-----------------0---|
D|-----------------------------------------|
A|------------------3-----------------2----|
E|---------3-------------------------------|
           G        C                Em
  Voy a hacer  una ronda por tu cumpleaños

E|--------0-----------------3-|
B|-------1-----------------3--|
G|------0-----------------0---|
D|----------------------------|
A|-----3----------------------|
E|-----------------------3----|
       C                 G
  un poema mil veces por año

E|----------------0--------------0--0---0--|
B|---------------1----------------0--0---0-|
G|--------------2--------------------------|
D|------------------------------2----------|
A|-------------0---------------2---2---2---|
E|------------------------------------3----|
               Am              Em     G
  y asi me entiendas cuanto te a      mo


        G            C                      Em
  Silbare      como silba un jilguero en el dia

        C                G
  borrare todas tus pesadillas

E|------------0--------------3----|
B|-----------1------------3-------|
G|----------0-------------2-------|
D|-----------------------------0--|
A|---------3--------------0-------|
E|--------------------------------|
           C              D
  y en tu boca me refugiare


CORO

        G                     Em
  Buscare tierra nueva en el campo

                  C              G
  le rezare a un santo al atardecer

       G                    Em
  nadare mar adentro en tu milla

               C                  G
  y de una costilla te hare mi mujer

          C                   G
  Han crecido en tu piel girasoles

          Em               Am
  de tu vientre nacio mi motivo

E|-----------0--0---2--2------3-|
B|------------0--0---3--3----3--|
G|--------------------------0---|
D|----------2------0-------0----|
A|---------2---2--0---0---2-----|
E|-----------------------3------|
           Em     D      G
  sentirme vi     i      vo
00:00 / 00:00
Otros videos de esta canción
Repetir
Otros videos de esta canción
Composición de Gian Marco Zignago
28 vistas
    • ½ Tono
    • A
    • Bb
    • B
    • C
    • Db
    • D
    • Eb
    • E
    • F
    • F#
    • G
    • Ab
  • Agregar a la lista

    0 comentarios

    Ver todos los comentarios

    ¿Lograste tocar?

    0 Tocaron 0 Aún no

    ¡Graba un video tocando Sentirme vivo y envíanoslo!

    00:00 / 00:00
    OK