Cifra Club

Todo se derrumbó

Emmanuel

Cifrado: Principal (guitarra y guitarra eléctrica)
tono: Dm
E|-------------7------------9------------9------------7------|
B|-----------------------------------------------------------|
G|-----------------------------------------------------------|
D|-----------------------------------------------------------|
B--Full-6s5-6---6-5--8s6-8---8-6--8s6-8---8-6--6s5-6---6-5--
e|-----------------------------------------------------------|

E|------------------------------------------------------------|
B|------------------------------------------------------------|
G|------------------------------------------------------------|
D|---------7------------9------------9------------7-----------|
A|---6s5-6---6-5--8s6-8---8-6--8s6-8---8-6--6s5-6---6-5-s--11-|
E|------------------------------------------------------------|

E|------------------------------------------------------------|
B|------------------------------------------------------------|
G|------------------------------------------------------------|
D|-----------12---------------12------------10------------10--|
A|--11s10-11---11s10-11s10-11---11--10s8-10----10-8s10-10-----|
E|------------------------------------------------------------|

E|------------------------------------------------------------|
B|------------------------------------------------------------|
G|------------------------------------------------------------|
D|-------9----------9--------------7-----------7--------------|
A|-8s6-8---8-6--8s6---8-6----6s5-6---6-5-6s5-6---6-5----------|
E|------------------------------------------------------------|

 Dm7          Gm7      A7  Dm  Dm7
Yo era feliz contigo, vida mía,
   Dm               Gm7      A7   Dm
Tú eras principio y fin de mi alegría
Gm            C7          F  Fmaj7
Yo te creía fiel como la luna
 Bb               Gm7        A7
Que acude a protegernos cada día.

  Dm7          Gm7      A7  Dm  Dm7
Yo era feliz contigo, vida mía,
 Dm               Gm7   A7       Dm
Tú eras mi perro fiel, yo era tu guía,
Gm              C7          F  Fmaj7
Hasta que desperté de mi locura,
Bb            Gm7           A7
Y pude comprender que me mentías.

Dm7           Gm7          C7            F   A7
Todo se derrumbó dentro de mí, dentro de mí
Dm7              Gm7          C7               F   F7
Hasta mi aliento ya me sabe a hiel, me sabe a hiel
 Bb             C
Mira mi cuerpo como se quiebra
F                 Dm7               Gm7  A7
Mira mis lágrimas como no cesan por ti.

Dm7           Gm7          C7            F   A7
Todo se derrumbó dentro de mí, dentro de mí
Dm7              Gm7       C7           F   F7
De humo fue tu amor y de papel, y de papel,
 Bb              C
Mira mis sueños como se queman
Fmaj7             Dm7               Gm7  A7
Mira mis lágrimas como no cesan por ti.
Composición de Ana Magdalena / Manuel Alejandro
6 vistas
    • ½ Tono
    • Am
    • Bbm
    • Bm
    • Cm
    • C#m
    • Dm
    • Ebm
    • Em
    • Fm
    • F#m
    • Gm
    • G#m
  • Agregar a la lista

    0 comentarios

    Ver todos los comentarios

    ¿Lograste tocar?

    0 Tocaron 0 Aún no

    ¡Graba un video tocando Todo se derrumbó y envíanoslo!

    00:00 / 00:00
    Outros vídeos desta música
    Repetir Calidad Automático
    Outros vídeos desta música
    00:00 / 00:00
    Automático
    OK