Cifra Club

Alsvartr The Oath

Emperor

Cifrado: Principal (guitarra y guitarra eléctrica)
Selo Cifra Club: esta cifra foi revisada para atender aos critérios oficiais da nossa Equipe de Qualidade.
tono: Cm
E|---------------------------------------------7-----|
B|-------------------------------------------7---7---|
G|---11-----9-----8-----9-----11-----9---8h9-------9-|
D|------9-----9-----9-----9------9-----9-------------|
A|-7------7-----7-----7-----7------7-----7-----------|
E|---------------------------------------------------|

               * don't play,(ghost hammer-on).
E|---------6--(7)--------7---------6-----------9---|
B|-------7---6-------6-----------7---6-------7---x-|
G|-----8-----------8---8-------8-----------6-------|
D|---8-----------8-----------8-----------8---------|
A|-6-----------6-----------6-----------6-----------|
E|-------------------------------------------------|

Gt.1 clean.
E|---------------------------------------------7-----| \
B|-------------------------------------------7---7---| |
G|---11-----9-----8-----9-----11-----9---8h9-------9-| |
D|------9-----9-----9-----9------9-----9-------------| |
A|-7------7-----7-----7-----7------7-----7-----------| |
E|---------------------------------------------------| |
                                                        \
Gt.2 clean,                      *natural harmonics.    /
E|------------------------------[5]------------------| |
B|---------------------------------[5]---------------| |
G|---------------------------------------------------| |
D|---------------------------------------------------| |
A|---------------------------------------------------| |
E|---------------------------------------------------| /

Gt1 clean,     * as above.
E|---------6--(7)--------7---------6-----------9---| \
B|-------7---6-------6-----------7---6-------7---x-| |
G|-----8-----------8---8-------8-----------6-------| |
D|---8-----------8-----------8-----------8---------| |
A|-6-----------6-----------6-----------6-----------| |
E|-------------------------------------------------| |
                                                      \
Gt.2 clean.                                           /
E|-------------6-----------------------------------| |
B|-----------------7p6-----------------------------| |
G|---------------------8p6-------------------------| |
D|-------------------------6h8---------------------| |
A|-------------------------------------------------| |
E|-------------------------------------------------| /

Gt.1 clean.
E|---------------------------------------------7-----| \
B|-------------------------------------------7---7---| |
G|---11-----9-----8-----9-----11-----9---8h9-------9-| |
D|------9-----9-----9-----9------9-----9-------------| |
A|-7------7-----7-----7-----7------7-----7-----------| |
E|---------------------------------------------------| |
                                                        \
Gt.2 clean,                      *natural harmonics.    /
E|------------------------------[12]-----------------| |
B|---------------------------------[12]--------------| |
G|---------------------------------------------------| |
D|---------------------------------------------------| |
A|---------------------------------------------------| |
E|---------------------------------------------------| /

Gt1 clean,     * as above.
E|---------6--(7)--------7---------6-----------9---| \
B|-------7---6-------6-----------7---6-------7---x-| |
G|-----8-----------8---8-------8-----------6-------| |
D|---8-----------8-----------8-----------8---------| |
A|-6-----------6-----------6-----------6-----------| |
E|-------------------------------------------------| |
                                                      \
Gt.2 clean.                                           /
E|-------------6-----------------------------------| |
B|-----------------7p6-----------------------------| |
G|---------------------8p6-------------------------| |
D|-------------------------6h8---------------------| |
A|-------------------------------------------------| |
E|-------------------------------------------------| /

Gt.1 clean.
E|---------------------------------------------7-----| \
B|-------------------------------------------7---7---| |
G|---11-----9-----8-----9-----11-----9---8h9-------9-| |
D|------9-----9-----9-----9------9-----9-------------| |
A|-7------7-----7-----7-----7------7-----7-----------| |
E|---------------------------------------------------| |
                                                        \
Gt.2 clean,                      *natural harmonics.    /
E|------------------------------[5]------------------| |
B|---------------------------------[5]---------------| |
G|---------------------------------------------------| |
D|---------------------------------------------------| |
A|---------------------------------------------------| |
E|---------------------------------------------------| /

Gt.1 clean,    * as above.
E|---------6--(7)--------7---------6-----------9---| \
B|-------7---6-------6-----------7---6-------7---x-| |
G|-----8-----------8---8-------8-----------6-------| |
D|---8-----------8-----------8-----------8---------| |
A|-6-----------6-----------6-----------6-----------| |
E|-------------------------------------------------| |
                                                      \
Gt.2 clean.                                           /
E|-------------6-----------------------------------| |
B|-----------------7p6-----------------------------| |
G|---------------------8p6-------------------------| |
D|-------------------------6h8---------------------| |
A|-------------------------------------------------| |
E|-------------------------------------------------| /

             * as above.
E|---------5(6)--------6-----------5-----------8---|
B|-------6---5-----5-----5-------6---5-------6---x-|
G|-----7-------------7---------7-----------5-------|
D|---7-----------7-----------7-----------7---------|
A|-5-----------5-----------5-----------5-----------|
E|-------------------------------------------------|

E|---------6-----------6-----------6-----------6---|
B|-------6---6-------6---6-------6---6-------6---6-|
G|-----8-----------8-----------8-----------8-------|
D|---8-----------8-----------8-----------8---------|
A|-6-----------6-----------6-----------6-----------|
E|-------------------------------------------------|

             * as above.
E|---------5(6)--------6-----------5-----------8---|
B|-------6---5-----5-----5-------6---5-------6---x-|
G|-----7-------------7---------7-----------5-------|
D|---7-----------7-----------7-----------7---------|
A|-5-----------5-----------5-----------5-----------|
E|-------------------------------------------------|

E|---------6-----------6-----------6-----------6---|
B|-------6---6-------6---6-------6---6-------6---6-|
G|-----8-----------8-----------8-----------8-------|
D|---8-----------8-----------8-----------8---------|
A|-6-----------6-----------6-----------6-----------|
E|-------------------------------------------------|

E|-------0-----------0-----------0-----------0-----|
B|-----3-----------3-----------3-----------3-------|
G|---2-----1h2---2-----1h2---2-----1h2---2-----1h2-|
D|-0-----------0-----------0-----------0-----------|
A|-------------------------------------------------|
E|-------------------------------------------------|

E|-------0-----------0-----------0-----------0-----|
B|-----3-----------3-----------3-----------3-------|
G|---2-----1h2---2-----1h2---2-----1h2---2-----1h2-|
D|-0-----------0-----------0-----------0-----------|
A|-------------------------------------------------|
E|-------------------------------------------------|

E|-------0-----------0-----------0-----------0-----|
B|-----3-----------3-----------3-----------3-------|
G|---2-----1h2---2-----1h2---2-----1h2---2-----1h2-|
D|-0-----------0-----------0-----------0-----------|
A|-------------------------------------------------|
E|-------------------------------------------------|

Gt.1 clean.
E|-------0-----------0-----------0-----------0-----| \
B|-----3-----------3-----------3-----------3-------| |
G|---2-----1h2---2-----1h2---2-----1h2---2-----1h2-| |
D|-0-----------0-----------0-----------0-----------| |
A|-------------------------------------------------| |
E|-------------------------------------------------| |
                                                      \
Gt.2 w/dist.                                          /
E|-------------------------------------------------| |
B|-------------------------------------------------| |
G|-------------------------------------------------| |
D|---------------------------9-----8---7-6-5-4-3-2-| |
A|-------------------------------------------------| |
E|-------------------------------------------------| /

Gt.1 clean.
E|-----------------------------------------| \
B|-----------------------------------------| |
G|-----------7-------------------7---------| |
D|-------11-----11-----------11-----11-----| |
A|----9-------------9-----9-------------9--| |
E|-7-------------------7-------------------| |
                                              \
Gt.2 w/dist.                                  /
E|-----------------------------------------| |
B|-----------------------------------------| |
G|-----------------------------------------| |
D|-----------------------------------------| |
A|-2-------------------2-----4------5------| |
E|-------3------2--------------------------| /

Gt.1 clean.
E|-----------------------------------------| \
B|-----------------------------------------| |
G|-----------7-------------------7---------| |
D|-------11-----11-----------11-----11-----| |
A|----9-------------9-----9-------------9--| |
E|-7-------------------7-------------------| |
                                              \
Gt.2 w/dist.                                  /
E|-----------------------------------------| |
B|-----------------------------------------| |
G|-----------------------------------------| |
D|---------------------------5------4------| |
A|-2-------------------2-------------------| |
E|-------3------2--------------------------| /

Gt.1 clean.
E|-----------------------------------------| \
B|-----------------------------------------| |
G|-----------6-------------------6---------| |
D|-------10-----10-----------10-----10-----| |
A|----8-------------8-----8-------------8--| |
E|-6-------------------6-------------------| |
                                              \
Gt.2 w/dist.                                  /
E|-----------------------------------------| |
B|-----------------------------------------| |
G|-----------------------------------------| |
D|-----------------------------------------| |
A|-1-------------------1-----3------4------| |
E|-------2------1--------------------------| /

Gt.1 clean.
E|-----------------------------------------| \
B|-----------------------------------------| |
G|-----------6-------------------6---------| |
D|-------10-----10-----------10-----10-----| |
A|----8-------------8-----8-------------8--| |
E|-6-------------------6-------------------| |
                                              \
Gt.2 w/dist.                                  /
E|-----------------------------------------| |
B|-----------------------------------------| |
G|-----------------------------------------| |
D|---------------------------4------3------| |
A|-1-------------------1-------------------| |
E|-------2------1--------------------------| /

Gt.1
E|-------0-----------0-----------0-----------0-----|
B|-----3----h------3----h------3----h------3----h--|
G|---2-----1| 2---2-----1 2---2-----1 2---2-----1 2-|
D|-0-----------0-----------0-----------0-----------|
A|-------------------------------------------------|
E|-------------------------------------------------|

Gt.1 clean.
E|-------0-----------0-----------0-----------0-----| \
B|-----3----h------3----h------3----h------3----h--| |
G|---2-----1| 2---2-----1 2---2-----1 2---2-----1 2-| |
D|-0-----------0-----------0-----------0-----------| |
A|-------------------------------------------------| |
E|-------------------------------------------------| |
                                                      \
Gt.2 w/dist.                                          /
E|-------------------------------------------------| |
B|-------------------------------------------------| |
G|-------------------------------------------------| |
D|---------------------------9-----8---7-6-5-4-3-2-| |
A|-------------------------------------------------| |
E|-------------------------------------------------| /

Gt.1 clean.
E|-----------------------------------------| \
B|-----------------------------------------| |
G|-----------7-------------------7---------| |
D|-------11-----11-----------11-----11-----| |
A|----9-------------9-----9-------------9--| |
E|-7-------------------7-------------------| |
                                              \
Gt.2 W/dist.                                  /
E|-----------------------------------------| |
B|-----------------------------------------| |
G|-----------------------------------------| |
D|-----------------------------------------| |
A|-2-------------------2-----4------5------| |
E|-------3------2--------------------------| /

Gt.1 clean.
E|-----------------------------------------| \
B|-----------------------------------------| |
G|-----------7-------------------7---------| |
D|-------11-----11-----------11-----11-----| |
A|----9-------------9-----9-------------9--| |
E|-7-------------------7-------------------| |
                                              \
Gt.2 w/dist.                                  /
E|-----------------------------------------| |
B|-----------------------------------------| |
G|-----------------------------------------| |
D|---------------------------5------4------| |
A|-2-------------------2-------------------| |
E|-------3------2--------------------------| /

Gt.1 clean.
E|-----------------------------------------| \
B|-----------------------------------------| |
G|-----------6-------------------6---------| |
D|-------10-----10-----------10-----10-----| |
A|----8-------------8-----8-------------8--| |
E|-6-------------------6-------------------| |
                                              \
Gt.2 w/dist.                                  /
E|-----------------------------------------| |
B|-----------------------------------------| |
G|-----------------------------------------| |
D|-----------------------------------------| |
A|-1-------------------1-----3------4------| |
E|-------2------1--------------------------| /

Gt.1 clean.
E|-----------------------------------------| \
B|-----------------------------------------| |
G|-----------6-------------------6---------| |
D|-------10-----10-----------10-----10-----| |
A|----8-------------8-----8-------------8--| |
E|-6-------------------6-------------------| |
                                              \
Gt.2 w/dist.                                  /
E|-----------------------------------------| |
B|-----------------------------------------| |
G|-----------------------------------------| |
D|---------------------------4------3------| |
A|-1-------------------1-------------------| |
E|-------2------1--------------------------| /

Gt.1 clean.
E|-----------------------------------------| \
B|-----------------------------------------| |
G|-----------5-------------------5---------| |
D|-------9------9------------9------9------| |
A|----7-------------7-----7-------------7--| |
E|-5-------------------5-------------------| |
                                              \
Gt.2 w/dist.                                  /
E|-----------------------------------------| |
B|-----------------------------------------| |
G|-----------------------------------------| |
D|-----------------------------------------| |
A|-0-------------------0-----2------3------| |
E|-------1------0--------------------------| /

Gt.1 clean.
E|-----------------------------------------| \
B|-----------------------------------------| |
G|-----------5-------------------5---------| |
D|-------9------9------------9------9------| |
A|----7-------------7-----7-------------7--| |
E|-5-------------------5-------------------| |
                                              \
Gt.2 W/dist.                                  /
E|-----------------------------------------| |
B|-----------------------------------------| |
G|-----------------------------------------| |
D|---------------------------3------2------| |
A|-0-------------------0-------------------| |
E|-------1------0--------------------------| /

Gt.1 clean.
E|-----------------------------------------| \
B|-----------------------------------------| |
G|-----------4-------------------4---------| |
D|-------8------8------------8------8------| |
A|----6-------------6-----6-------------6--| |
E|-4-------------------4-------------------| |
                                              \
Gt.2 w/dist.                                  /
E|-----------------------------------------| |
B|-----------------------------------------| |
G|-----------------------------------------| |
D|-----------------------------------------| |
A|---------------------4-----6------8------| |
E|-4-----6------7--------------------------| /

Gt.1 clean.
E|-----------------------------------------| \
B|-----------------------------------------| |
G|-----------4-------------------4---------| |
D|-------8------8------------8------8------| |
A|----6-------------6-----6-------------6--| |
E|-4-------------------4-------------------| |
                                              \
Gt.2 w/dist.                                  /
E|-----------------------------------------| |
B|-----------------------------------------| |
G|-----------------------------------------| |
D|-4-----6------8-----9/(6)| Gt.3)-----------| |
A|-----------------------------------------| |
E|-----------------------------------------| /

Gt.1 w/overdrive.
E|-------------------------------------| \
B|-------------------------------------| |
G|-------------------------------------| |
D|----------9--8--7--------------8--9--| |
A|-------------------10-7--9--10-------| |
E|(0)----------------------------------| |
                                         \
Gt.2 w/dist.                             /
E|-------------------------------------| |
B|-------------------------------------| |
G|-------------------------------------| |
D|-------------------------------------| |
A|-------------------------------2-----| |
E|-0-----------------------------------| /

Gt.1 w/overdrive.
E|-------------------------------------| \
B|-------------------------------------| |
G|-------------------------------------| |
D|----------9--8--7--------------7--8--| |
A|-------------------10-7--9--10-------| |
E|(0)----------------------------------| |
                                         \
Gt.2 w/dist.                             /
E|------------------------------------| |
B|------------------------------------| |
G|------------------------------------| |
D|------------------------------------| |
A|-------------------------------1----| |
E|-0----------------------------------| /

Gt.1 w/overdrive.
E|-------------------------------------| \
B|-------------------------------------| |
G|-------------------------------------| |
D|----------9--8--7--------------9--10-| |
A|-------------------10-7--9--10-------| |
E|(0)----------------------------------| |
                                         \
Gt.2 w/dist.                             /
E|------------------------------------| |
B|------------------------------------| |
G|------------------------------------| |
D|------------------------------------| |
A|-------------------------------3----| |
E|-0----------------------------------| /

Gt.1 w/overdrive.
E|------------------------------------| \
B|------------------------------------| |
G|------------------------------------| |
D|----------9--8--7-------------------| |
A|-------------------10-7-------------| |
E|(0)---------------------------------| |
                                         \
Gt.2 w/dist.                             /
E|------------------------------------| |
B|------------------------------------| |
G|------------------------------------| |
D|-------------------2----------(tr| ill) |
A|-------------------------3-----23232| |
E|-0----------------------------------| /

Gt.1 w/dist.
E|--------------------------------------------| \
B|--------------------------------------------| |
G|--------------------------------------------| |
D|----------2----(tr| ill)---------2----(trill)-| |
A|-------------3--23232-------------2--12121--| |
E|-0--2--3--------------0--2--3---------------| |
                                                 \
Gt.2 w/dist.                                     /
E|--------------------------------------------| |
B|--------------------------------------------| |
G|------------s| l------------------------------| |
D|----------2-/5--4~-------------2--4--3~-----| |
A|--------------------------------------------| |
E|-0--2--3--------------0--2--3---------------| /

Gt.1 w/dist.
E|--------------------------------------------| \
B|--------------------------------------------| |
G|--------------------------------------------| |
D|----------2----(tr| ill)---------2----(trill)-| |
A|-------------2--23232-------------3--23232--| |
E|-0--2--3--------------0--2--3---------------| |
                                                 \
Gt.2 w/dist.                                     /
E|--------------------------------------------| |
B|--------------------------------------------| |
G|--------------------------------------------| |
D|----------2-----3~-------------2----(tr| ill)-| |
A|-------------2--------------------3--23232--| |
E|-0--2--3--------------0--2--3---------------| /

Gt.1 w/dist,
   * Artificial Pinch Harmonic,
   * While slowly depressing Whammy.
E|-------------------------------------| \
B|-------------------------------------| |
G|-[8]\--------------------------------| |
D|V.A 15--------\----------------------| |
A|-----------------------\-------------| |
E|---------------------------------\---| |
                                          \
Gt.2                                      /
E|-------------------------------------| |
B|-------------4--------------6--------| |
G|----------5-----5--------8-----8-----| |
D|-------7--------------8-----------8--| |
A|----7--------------6-----------------| |
E|-5-----------------------------------| /

Gt.1 w/dist.
E|-------------------------------------| \
B|-------------------------------------| |
G|-------------------------------------| |
D|-------------------------------------| |
A|sl-----------------6~~~~-------------| |
E|/5~~~--------------------------------| |
                                          \
Gt.2                                      /
E|-------------------------------------| |
B|-------------4--------------6--------| |
G|----------5-----5--------8-----8-----| |
D|-------7--------------8-----------8--| |
A|----7--------------6-----------------| |
E|-5-----------------------------------| /

Gt.1 w/dist.
E|-------------------------------------| \
B|-------------------------------------| |
G|-------------------------------------| |
D|------------------------s| l-sl--------| |
A|sl-----------------6~~~~/12\---------| |
E|/5~~~---------------------------\----| |
                                          \
Gt.2                                      /
E|-------------------------------------| |
B|-------------4--------------6--------| |
G|----------5-----5--------8-----8-----| |
D|-------7--------------8-----------8--| |
A|----7--------------6-----------------| |
E|-5-----------------------------------| /

Gt.1 w/dist.
E|--------------------------------------------| \
B|--------------------------------------------| |
G|--------------------------------------------| |
D|----------2----(tr| ill)---------2----(trill)-| |
A|-------------3--23232-------------2--12121--| |
E|-0--2--3--------------0--2--3---------------| |
                                                 \
Gt.2 w/dist.                                     /
E|--------------------------------------------| |
B|--------------------------------------------| |
G|------------s| l------------------------------| |
D|----------2-/5--4~-------------2--4--3~-----| |
A|--------------------------------------------| |
E|-0--2--3--------------0--2--3---------------| /

Gt.1 w/dist.
E|--------------------------------------------| \
B|--------------------------------------------| |
G|--------------------------------------------| |
D|----------2----(tr| ill)---------2----(trill)-| |
A|-------------2--23232-------------3--23232--| |
E|-0--2--3--------------0--2--3---------------| |
                                                 \
Gt.2 w/dist.                                     /
E|--------------------------------------------| |
B|--------------------------------------------| |
G|--------------------------------------------| |
D|----------2-----3~-------------2----(tr| ill)-| |
A|-------------2--------------------3--23232--| |
E|-0--2--3--------------0--2--3---------------| /

  w/dist,
  p - Palm Mute,
  * - With Pinch Harmonics.
E|-------*-----------------------------| ||   ||
B|-------1po0--------------------------| ||   ||
G|-------------2--*--------*-----*-s| l--| || X ||
D|----2-----------1--*-----1--*--1-/3--| || 4 ||
A|-0-----------------3~~------3--------| ||   ||
E|-------------------------------------| ||   ||

Gt.1 w/dist.
E|--------------------------------------------| \
B|--------------------------------------------| |
G|--------------------------------------------| |
D|----------2----(tr| ill)---------2----(trill)-| |
A|-------------3--23232-------------2--12121--| |
E|-0--2--3--------------0--2--3---------------| |
                                                 \
Gt.2 w/dist.                                     /
E|--------------------------------------------| |
B|--------------------------------------------| |
G|------------s| l------------------------------| |
D|----------2-/5--4~-------------2--4--3~-----| |
A|--------------------------------------------| |
E|-0--2--3--------------0--2--3---------------| /

Gt.1 w/dist.
E|--------------------------------------------| \
B|--------------------------------------------| |
G|--------------------------------------------| |
D|----------2----(tr| ill)---------2----(trill)-| |
A|-------------2--23232-------------3--23232--| |
E|-0--2--3--------------0--2--3---------------| |
                                                 \
Gt.2 w/dist.                                     /
E|--------------------------------------------| |
B|--------------------------------------------| |
G|--------------------------------------------| |
D|----------2-----3~-------------2----(tr| ill)-| |
A|-------------2--------------------3--23232--| |
E|-0--2--3--------------0--2--3---------------| /

E|-0------------------------------------------| |
B|-0------------------------------------------| |
G|-X------------------------------------------| |
D|-2------------------------------------------| |
A|-2------------------------------------------| |
E|-0------------------------------------------| |
Otros videos de esta canción
    0 exhibiciones
      • ½ Tono
      • Am
      • Bbm
      • Bm
      • Cm
      • C#m
      • Dm
      • Ebm
      • Em
      • Fm
      • F#m
      • Gm
      • G#m
    • Agregar a la lista

    Afinação da cifra

    Afinador online

      Ops (: Contenido disponible solo en portugués.
      OK