Cifra Club

Ancient Queen

Emperor

Cifrado: Principal (guitarra y guitarra eléctrica)
Selo Cifra Club: esta cifra foi revisada para atender aos critérios oficiais da nossa Equipe de Qualidade.
tono: E
|-------------------------------|---------------------------------|
|-------------------------------|---------------------------------|
|-------------------------------|---------------------------------|
|-------------------------------|---------------------------------|
|-2-2-2-2-2-2-2-2-3-3-3-3-3-2-3-|-2-2-2-2-2-2-2-2-3-3-3-3-3-3-3-3-|
|-0-0-0-0-0-0-0-0-0-0-0-0-0-0-0-|-0-0-0-0-0-0-0-0-0-0-0-0-0-0-0-0-|

|---------------------------------|-------------------------------|
|---------------------------------|-------------------------------|
|---------------------------------|-------------------------------|
|---------------------------------|-------------------------------|
|-2-2-2-2-2-2-2-2-3-3-3-3-3-3-3-3-|-2-2-2-2-2-2-2-2-3-3-3-3-3-2-3-|
|-1-1-1-1-1-1-1-1-1-1-1-1-1-1-1-1-|-1-1-1-1-1-1-1-1-1-1-1-1-1-1-1-|

Q=95
||----------------------------------|----------------------------------|
||o---------------------------------|----------------------------------|
||----------------------------------|----------------------------------|
||----------------------------------|----------------------------------|
||o-2-2-2-2-2-2-2-2-3-3-3-3-3-3-3-3-|-2-2-2-2-2-2-2-2-3-3-3-3-3-3-3-3--|
||--0-0-0-0-0-0-0-0-0-0-0-0-0-0-0-0-|-0-0-0-0-0-0-0-0-0-0-0-0-0-0-0-0--|

4x
|---------------------------------|----------------------------------||
|---------------------------------|---------------------------------o||
|---------------------------------|----------------------------------||
|---------------------------------|----------------------------------||
|-2-2-2-2-2-2-2-2-3-3-3-3-3-3-3-3-|-2-2-2-2-2-2-2-2-3-3-3-3-3-3-3-3-o||
|-1-1-1-1-1-1-1-1-1-1-1-1-1-1-1-1-|-1-1-1-1-1-1-1-1-1-1-1-1-1-1-1-1--||

|----------------------------|-----------------------------------|
|----------------------------|-----------------------------------|
|----------------------------|-----------------------------------|
|-5-------5-------8-------8--|-6-------6-------10-10-10-10-10-11-|
|-3-3-3-3-3-3-3-3-6-6-6-6-6--|-4-4-4-4-4-4-4-4--8--8--8--8--8--9-|
|-3-3-3-3-3-3-3-3-6-6-6-6-6--|-4-4-4-4-4-4-4-4--8--8--8--8--8--9-|

|---------------------------------|-------------------------------------|
|---------------------------------|-------------------------------------|
|---------------------------------|-------------------------------------|
|-5-5-5-5-5-5-5-5-8-8-8-8-8-8-8-8-|-6-6-6-6-6-6-6-6-10-10-10-10-6-6-6-6-|
|-3-3-3-3-3-3-3-3-6-6-6-6-6-6-6-6-|-4-4-4-4-4-4-4-4--8--8--8--8-4-4-4-4-|
|-3-3-3-3-3-3-3-3-6-6-6-6-6-6-6-6-|-4-4-4-4-4-4-4-4--8--8--8--8-4-4-4-4-|

|---------------------------------|------------------------------------|
|---------------------------------|------------------------------------|
|---------------------------------|------------------------------------|
|-5-5-5-5-5-5-5-5-8-8-8-8-8-8-8-8-|-6-6-6-6-6-6-6-6-10-10-10-10-10-11--|
|-3-3-3-3-3-3-3-3-6-6-6-6-6-6-6-6-|-4-4-4-4-4-4-4-4--8--8--8--8--8--9--|
|-3-3-3-3-3-3-3-3-6-6-6-6-6-6-6-6-|-4-4-4-4-4-4-4-4--8--8--8--8--8--9--|

|---------------------------------|-------------------------------------|
|---------------------------------|-------------------------------------|
|---------------------------------|-------------------------------------|
|-5-5-5-5-5-5-5-5-8-8-8-8-8-8-8-8-|-6-6-6-6-6-6-6-6-10-10-10-10-6-6-6-6-|
|-3-3-3-3-3-3-3-3-6-6-6-6-6-6-6-6-|-4-4-4-4-4-4-4-4--8--8--8--8-4-4-4-4-|
|-3-3-3-3-3-3-3-3-6-6-6-6-6-6-6-6-|-4-4-4-4-4-4-4-4--8--8--8--8-4-4-4-4-|

|-----------------------------|-------------------------------|
|-----------------------------|-------------------------------|
|-----------------------------|---4---------------------------|
|-4-4-3h4p3h4p3h4---------6-6-|-2---4-3h4p3h4p3h4---------6-6-|
|-------------------5-5-4-----|---------------------5-5-4-----|
|-----------------3-----------|-------------------3-----------|

|-----------------------------------|-----------------------------------|
|-----------------------------------|-----------------------------------|
|---4-------------------------------|-2-4-------------------------------|
|-2---4-3h4p3h4p3h4---------6-6-6-6-|-----4-3h4p3h4p3h4---------6-6-6-6-|
|---------------------5-5-4---------|---------------------5-5-4---------|
|-------------------3---------------|-------------------3---------------|

||------------------------------------|-------------------------------------||
||o-----------------------------------|------------------------------------o||
||----4-------------------------------|-2-4---------------------------------||
||--2---4-3h4p3h4p3h4---------6-6-6-6-|-----4-3h4p3h4p3h4---------6-6-6-6---||
||o---------------------5-5-4---------|---------------------5-5-4----------o||
||--------------------3---------------|-------------------3-----------------||

|-----------------------------------|---------------------------|
|-----------------------------------|---------------------------|
|---4-------------------------------|---------5-4---5-5-5-5-5---|
|-2---4-3h4p3h4p3h4-4-4-4-4-4-4-4-4-|-4-4-4-4-----5-3-3-3-3-3---|
|-------------------2-2-2-2-2-2-2-2-|-2-2-2-2-------------------|
|-----------------------------------|---------------------------|

3x
||------------------------|---------------------------||
||o-----------------------|--------------------------o||
||--6--7------------------|---------5-4---5-5-5-5-5---||
||--4--5--4-4-4-4-4-4-4-4-|-4-4-4-4-----5-3-3-3-3-3---||
||o-------2-2-2-2-2-2-2-2-|-2-2-2-2------------------o||
||------------------------|---------------------------||

|---------------------|-----------------------------|
|---------------------|-----------------------------|
|-6--7----------------|-----------------------------|
|-4--5----------------|-----------------------------|
|---------------7-8-7-|---------7-8-7---------7-8-7-|
|-------5-5-5-5-------|-5-5-5-5-------4-4-4-4-------|

4x
||------------------------------|------------------------------||
||o-----------------------------|-----------------------------o||
||------------------------------|------------------------------||
||------------------------------|------------------------------||
||o---------7-8-7---------7-8-7-|---------7-8-7---------7-8-7-o||
||--0-0-0-0-------5-5-5-5-------|-5-5-5-5-------4-4-4-4--------||

|-------------------------------|--------------------------|
|-------------------------------|--------------------------|
|-------------------------------|---------5-4---5-5-5-5-5--|
|---------------4-4-4-4-4-4-4-4-|-4-4-4-4-----5-3-3-3-3-3--|
|---------7-8-7-2-2-2-2-2-2-2-2-|-2-2-2-2------------------|
|-0-0-0-0-----------------------|--------------------------|

3x
||------------------------|--------------------------------||
||o-----------------------|-------------------------------o||
||--6--7------------------|---------5-4---5-5-5-5-5-5-5-5--||
||--4--5--4-4-4-4-4-4-4-4-|-4-4-4-4-----5-3-3-3-3-3-3-3-3--||
||o-------2-2-2-2-2-2-2-2-|-2-2-2-2-----------------------o||
||------------------------|--------------------------------||

|----------------------------|----------------------------------|
|----------------------------|----------------------------------|
|-6-6-6-6-7------------------|----------------------------------|
|-4-4-4-4-5------------------|----------------------------------|
|------------2-2-2-2-2-2-2-2-|-3-3-3-3-3-3-3-3-2-2-2-2-2-2-2-2--|
|------------0-0-0-0-0-0-0-0-|-0-0-0-0-0-0-0-0-0-0-0-0-0-0-0-0--|

||----------------------------------|----------------------------------|
||o---------------------------------|----------------------------------|
||----------------------------------|----------------------------------|
||----------------------------------|----------------------------------|
||o-3-3-3-3-3-3-3-3-2-2-2-2-2-2-2-2-|-3-3-3-3-3-3-3-3-2-2-2-2-2-2-2-2--|
||--0-0-0-0-0-0-0-0-1-1-1-1-1-1-1-1-|-1-1-1-1-1-1-1-1-1-1-1-1-1-1-1-1--|

3x
|-------------------------------|----------------------------------||
|-------------------------------|---------------------------------o||
|-------------------------------|----------------------------------||
|-------------------------------|----------------------------------||
|-3-3-3-3-3-2-3-2-2-2-2-2-2-2-2-|-3-3-3-3-3-3-3-3-2-2-2-2-2-2-2-2-o||
|-1-1-1-1-1-1-1-0-0-0-0-0-0-0-0-|-0-0-0-0-0-0-0-0-0-0-0-0-0-0-0-0--||

|---------------------------------|---------------------------------|
|---------------------------------|---------------------------------|
|---------------------------------|---------------------------------|
|---------------------------------|---------------------------------|
|-3-3-3-3-3-3-3-3-2-2-2-2-2-2-2-2-|-3-3-3-3-3-3-3-3-2-2-2-2-2-2-2-2-|
|-0-0-0-0-0-0-0-0-1-1-1-1-1-1-1-1-|-1-1-1-1-1-1-1-1-1-1-1-1-1-1-1-1-|

|--------------------|--------*|
|--------------------|--------*|
|--------------------|--------*|
|--------------------|--------*|
|-3-3-3-3-3-2-3-2----|-(2)----*|
|-1-1-1-1-1-1-1-0----|-(0)----*|

Otros videos de esta canción
    29 exhibiciones
      • ½ Tono
      • A
      • Bb
      • B
      • C
      • Db
      • D
      • Eb
      • E
      • F
      • F#
      • G
      • Ab
    • Agregar a la lista

    Afinação da cifra

    Afinador online

      Ops (: Contenido disponible solo en portugués.
      OK