Cifra Club

Beyond The Great Vast Forest

Emperor

Cifrado: Principal (guitarra y guitarra eléctrica)
Selo Cifra Club: esta cifra foi revisada para atender aos critérios oficiais da nossa Equipe de Qualidade.
tono: A

================================================================================
         Album : In The Nightside Eclipse
Transcribed by : n8 scabies 
  This is track 5 from the complete "In The Nightside Eclipse" tablature
================================================================================

Legend
------

 h  = hammer-on
 p  = pull-off
 b  = bend
 r  = bend release
 /  = slide up/down
 = natural harmonic
[5] = artifical harmonic
 ~  = vibrato
 tr = trill

 g1 = guitar #1 Ishan(?), notes on top of staff
(5) = notes played only by g2 Samoth(?)
 g2 = guitar #2 Samoth(?), notes on bottom of staff
 trem. = tremelo picking
 r# = riff #
 b# = break #

    E    F     B    D    A#   A    G    E    F     B    A    A#
    r1, g1, trem. g1 possibly only (#)
E|------------------------------------------------------------------||--
B|------------------------------------------------------------------||--
G|--(9)--(10)-------(7)-----------------(9)--(10)-------------------||--
D|-------------(9)-------(8)--(7)--(5)-------------(9)--(7)--(8)----||--
A|---7-----8---------5-------------------7-----8---------5----6-----||--
E|--------------7---------6----5----3~~~------------7---------------||--
    g2, follow g1 or possibly only lower notes.


    r2, g2, sometimes g1&g2,   r2, g1
E|--------------------------|--------------------------------------||--
B|--------------------------|--------------------------------------||--
G|--------------------------|--7--7--7--6--8--5--4--5--------------||--
D|--5--5--5--4--6--3--2--3--|--5--5--5--4--6--3--2--3--------------||--
A|--5--5--5--4--6--3--2--3--|--------------------------------------||--
E|--3--3--3--2--4--1--0--1--|--------------------------------------||--


    B  C              D#       F# G              A#
    r3a, g1 & g2               r3b, g1 & g2
E|--------------------------|--------------------------------------||--
B|--------------------------|--------------------------------------||--
G|--------------------------|--------------------------------------||--
D|--------------------1-----|--------------------------------------||--
A|--2--3--2--3--2--3-----3--|--------------------1-----------------||--
E|--------------------------|--2--3--2--3--2--3-----3--------------||--


    F# G                            B  C     A
    r4a, g1 &g2                     r4b, g1&g2
E|-------------------------------|-----------------------------------||--
B|-------------------------------|-----------------------------------||--
G|-------------------------------|-----------------------------------||--
D|-------------------------------|-----------------------------------||--
A|-------------------------------|--2--3--2--0--2~~--2--3--2--0------||--
E|--2--3--2--0--2~~--2--3--2--0--|-----------------------------------||--


    B  E  F# F  B  E  G#
    r5/ending, g1&g2, trem.
E|-----------------------||----
B|-----------------------||----
G|-----------------------||----
D|-----------------------||----
A|--2-----------2--------||----
E|-----0--2--1-----0--4--||----

Em,  (r4a 4X, r4b 4X) 2X, pattern 1, r5/ending 8X..fade out.
Otros videos de esta canción
    61 exhibiciones
      • ½ Tono
      • A
      • Bb
      • B
      • C
      • Db
      • D
      • Eb
      • E
      • F
      • F#
      • G
      • Ab
    • Agregar a la lista

    Afinação da cifra

    Afinador online

      Ops (: Contenido disponible solo en portugués.
      OK