Cifra Club

Forgotten Centuries

Emperor

Cifrado: Principal (guitarra y guitarra eléctrica)
Selo Cifra Club: esta cifra foi revisada para atender aos critérios oficiais da nossa Equipe de Qualidade.
tono: A
6x
||----------------------------------|----------------------------------||
||o---------------------------------|---------------------------------o||
||--7-7-7-7-7-7-7-7-----------------|-6-6-6-6-6-6-6-6------------------||
||--5-5-5-5-5-5-5-5-7-7-7-7-6-6-6-6-|-4-4-4-4-4-4-4-4------------------||
||o-----------------5-5-5-5-4-4-4-4-|-----------------7-7-7-7-6-6-6-6-o||
||----------------------------------|-----------------5-5-5-5-4-4-4-4--||

Q=104
|-------------------------|-------------------------|
|-------------------------|-------------------------|
|-------------------------|-------------------------|
|-------------------------|-------------------------|
|-2S4-4-4S5-5-5S8-8-8S7-7-|-7S5-5-5S4-4-2S4-4-4S5-5-|
|-0S2-2-2S3-3-3S6-6-6S5-5-|-5S3-3-3S2-2-0S2-2-2S3-3-|

|-------------------------|-------------------------|
|-------------------------|-------------------------|
|-------------------------|-------------------------|
|-------------------------|-------------------------|
|-5S8-8-8S7-7-7S5-5-5S4-4-|-2S4-4-4S5-5-5S8-8-8S7-7-|
|-3S6-6-6S5-5-5S3-3-3S2-2-|-0S2-2-2S3-3-3S6-6-6S5-5-|

|-------------------------|-------------------------|
|-------------------------|-------------------------|
|-------------------------|-------------------------|
|-------------------------|-------------------------|
|-7S5-5-5S4-4-2S4-4-4S5-5-|-5S8-8-8S7-7-7S5-5-5S4-4-|
|-5S3-3-3S2-2-0S2-2-2S3-3-|-3S6-6-6S5-5-5S3-3-3S2-2-|

Q=160
6x
||----------------------------------|-----------------------------------||
||o---------------------------------|----------------------------------o||
||--7-7-7-7-7-7-7-7-----------------|-6-6-6-6-6-6-6-6-------------------||
||--5-5-5-5-5-5-5-5-7-7-7-7-6-6-6-6-|-4-4-4-4-4-4-4-4-------------------||
||o-----------------5-5-5-5-4-4-4-4-|-----------------7-7-7-7-6-6-6-6--o||
||----------------------------------|-----------------5-5-5-5-4-4-4-4---||

3/4
||--------------|-------------|-------------|-------------|
||o-------------|-------------|-------------|-------------|
||--5-2-4-1-2-4-|-5-2-4-1-2-4-|-5-2-4-1-2-4-|-5-2-4-1-2-4-|
||--------------|-------------|-------------|-------------|
||o-------------|-------------|-------------|-------------|
||--------------|-------------|-------------|-------------|

|--------|--------|--------|-------||
|--------|--------|--------|------o||
|--------|--------|-4------|-------||
|-5------|-3------|-4------|-5-----||
|-3------|-3------|-2------|-5----o||
|-3------|-1------|--------|-3-----||

Q=72
4/4
|-------------|-----------------|-----------------|
|-------------|-----------------|-----------------|
|-------------|-----------------|-----------------|
|-------------|-----------------|-----------------|
|-7-----------|-2-2-2-2-2-2-6-7-|-5-5-5-5-4-4-3-4-|
|-5------17\\--|-0-0-0-0-0-0-4-5-|-3-3-3-3-2-2-1-2-|

4x
||------------------|------------------||------|
||o-----------------|-----------------o||------|
||------------------|------------------||------|
||------------------|------------------||------|
||o-2-2-2-2-2-2-6-7-|-5-5-5-5-4-4-3-4-o||-2----|
||--0-0-0-0-0-0-4-5-|-3-3-3-3-2-2-1-2--||-0----|

Q=160
6x
||----------------------------------|-----------------------------------||
||o---------------------------------|----------------------------------o||
||--7-7-7-7-7-7-7-7-----------------|-6-6-6-6-6-6-6-6-------------------||
||--5-5-5-5-5-5-5-5-7-7-7-7-6-6-6-6-|-4-4-4-4-4-4-4-4-------------------||
||o-----------------5-5-5-5-4-4-4-4-|-----------------7-7-7-7-6-6-6-6--o||
||----------------------------------|-----------------5-5-5-5-4-4-4-4---||

Q=104
|-------------------------|-------------------------|
|-------------------------|-------------------------|
|-------------------------|-------------------------|
|-------------------------|-------------------------|
|-2S4-4-4S5-5-5S8-8-8S7-7-|-7S5-5-5S4-4-2S4-4-4S5-5-|
|-0S2-2-2S3-3-3S6-6-6S5-5-|-5S3-3-3S2-2-0S2-2-2S3-3-|

|-------------------------|-------------------------|
|-------------------------|-------------------------|
|-------------------------|-------------------------|
|-------------------------|-------------------------|
|-5S8-8-8S7-7-7S5-5-5S4-4-|-2S4-4-4S5-5-5S8-8-8S7-7-|
|-3S6-6-6S5-5-5S3-3-3S2-2-|-0S2-2-2S3-3-3S6-6-6S5-5-|

|-------------------------|-------------------------|
|-------------------------|-------------------------|
|-------------------------|-------------------------|
|-------------------------|-------------------------|
|-7S5-5-5S4-4-2S4-4-4S5-5-|-5S8-8-8S7-7-7S5-5-5S4-4-|
|-5S3-3-3S2-2-0S2-2-2S3-3-|-3S6-6-6S5-5-5S3-3-3S2-2-|

|----------|--------*|
|----------|--------*|
|----------|--------*|
|----------|--------*|
|-2--------|-(2)----*|
|-0--------|-(0)----*|
Otros videos de esta canción
    12 exhibiciones
      • ½ Tono
      • A
      • Bb
      • B
      • C
      • Db
      • D
      • Eb
      • E
      • F
      • F#
      • G
      • Ab
    • Agregar a la lista

    Afinação da cifra

    Afinador online

      Ops (: Contenido disponible solo en portugués.
      OK