Cifra Club

In Longing Spirit

Emperor

Cifrado: Principal (guitarra y guitarra eléctrica)
Selo Cifra Club: esta cifra foi revisada para atender aos critérios oficiais da nossa Equipe de Qualidade.
tono: F#
Album:Reverence EP
Tabbed by:*


Key:
/=slide
pm=palm mute
...=tremelo
ah=artificial harmonic
tr=trill
v=vibrato
h=hammer-on
p=pull-off

Riff 1 Lead:
----------------------------------
----------------------------------
---------------9...-11...---------
--------11...--------------10...--
--9...----------------------------
----------------------------------

Riff 1 Rythm:Picked very fast of course ...
----------------------
----------------------
----------------------
------4----------4----
----3---3------4---4--
--2----------2--------

Fill 1:
------------------------------
------------------------------
------------------------------
-----------------------3-3-3--
--1-1-1--1-1-1--1-1-1--3-3-3--
--2-2-2--3-3-3--2-2-2--1-1-1--

Riff 2:Main Riff , I variate this alot but this is what is played  in the 
song . First chord could be an E p0wer chord ...
----------------------------
----------------------------
-----4--4-------------------
-----5--5---7---7-----------
--7--7--6---5---4---6/1--1--
--0-------------0---8/3--3--

Lots of Keyboard , the keys for it are E , A# , B , C

Riff 3:
------------------------------------------------------------------------------
------------------------------------------------------------------------------
------------------------------------------------------------------------------
-9--9-9-9-9---3-3333----4-4444---4-4444---4-4444--4-4444---4-4444--5555-8888--
-10-10101010--4-4444----5-5555---5-5555---5-5555--5-5555---5-5555--3333-6666--
-12-12121212--6-6666----7-7777---6-6666---7-7777--6-6666---7-7777-------------

Repeat the main riff but play it AFAP ....

Outro:Same riff from "The Acclamation of Bonds" .Bend each very slightly 
.Great chords ...
------------------------------------------------------------
------------------------------------------------------------
-----b4-----b7------b4-------b5-----b5-----b6---------------
-----b5-----b8------b5-------b6-----b7-----b7---3--3--3--2--
-----b7-----b10-----b6-------b8-----b7-----b8---3--3--2--2--
--0------0-------0--------0------0------0-------1--1--1--1--
Otros videos de esta canción
    17 exhibiciones
      • ½ Tono
      • A
      • Bb
      • B
      • C
      • Db
      • D
      • Eb
      • E
      • F
      • F#
      • G
      • Ab
    • Agregar a la lista

    Afinação da cifra

    Afinador online

      Ops (: Contenido disponible solo en portugués.
      OK