Cifra Club

Moon Over Kara-shehr

Emperor

Cifrado: Principal (guitarra y guitarra eléctrica)
Selo Cifra Club: esta cifra foi revisada para atender aos critérios oficiais da nossa Equipe de Qualidade.
tono: B
Gtr I
||--------------|--------------|-----------------|-------------------||
||o-------------|--------------|-----------------|------------------o||
||--------------|--------------|-----------------|-------------------||
||--9--9--9--9--|-9--9--9--7-9-|-10--10--10--10--|-10--10--10--7-10--||
||o-7--7--7--7--|-7--7--7--7-7-|--8---8---8---8--|--8---8---8--7--7-o||
||--7--7--7--7--|-7--7--7--7-7-|--8---8---8---8--|--8---8---8--7--7--||

|----------|--------|
|----------|--------|
|----------|--------|
|-9--------|-(9)----|
|-7--------|-(7)----|
|-7--------|-(7)----|

|---------------------------------|---------------------------------|
|---------------------------------|---------------------------------|
|---------------------------------|---------------------------------|
|-----------------7-7-7-7-7-7-7-7-|-6-6-6-6-6-6-6-6-6-6-6-6-6-6-6-6-|
|-2-2-2-2-2-2-2-2-5-5-5-5-5-5-5-5-|-4-4-4-4-4-4-4-4-4-4-4-4-4-4-4-4-|
|---------------------------------|---------------------------------|

|---------------------------------|---------------------------------|
|---------------------------------|---------------------------------|
|---------------------------------|---------------------------------|
|-4-4-4-4-4-4-4-4-7-7-7-7-7-7-7-7-|-6-6-6-6-6-6-6-6-5-5-5-5-5-5-5-5-|
|-2-2-2-2-2-2-2-2-5-5-5-5-5-5-5-5-|-4-4-4-4-4-4-4-4-3-3-3-3-3-3-3-3-|
|---------------------------------|---------------------------------|

||----------------------------------|----------------------------------|
||o---------------------------------|----------------------------------|
||----------------------------------|----------------------------------|
||--4-4-4-4-4-4-4-4-7-7-7-7-7-7-7-7-|-6-6-6-6-6-6-6-6-6-6-6-6-6-6-6-6--|
||o-2-2-2-2-2-2-2-2-5-5-5-5-5-5-5-5-|-4-4-4-4-4-4-4-4-4-4-4-4-4-4-4-4--|
||----------------------------------|----------------------------------|

|---------------------------------|----------------------------------||
|---------------------------------|---------------------------------o||
|---------------------------------|----------------------------------||
|-4-4-4-4-4-4-4-4-7-7-7-7-7-7-7-7-|-6-6-6-6-6-6-6-6-5-5-5-5-5-5-5-5--||
|-2-2-2-2-2-2-2-2-5-5-5-5-5-5-5-5-|-4-4-4-4-4-4-4-4-3-3-3-3-3-3-3-3-o||
|---------------------------------|----------------------------------||

|----------|--------|
|----------|--------|
|----------|--------|
|-4--------|-(4)----|
|-2--------|-(2)----|
|----------|--------|

6x
||---------------|--------------|--------------|-----------------||
||o--------------|--------------|--------------|----------------o||
||---------------|--------------|--------------|-----------------||
||---------------|--------------|--------------|-----------------||
||o-4--4--4--4S7-|-7--7--7S6-6--|-5--5--5--5S8-|-8--8--8S7-7S8--o||
||--2--2--2--2S5-|-5--5--5S4-4--|-3--3--3--3S6-|-6--6--6S5-5S6---||

|----------|--------|
|----------|--------|
|----------|--------|
|----------|--------|
|-4--------|-(4)----|
|-2--------|-(2)----|

Q=168
||----------------------------------|-----------------------------||
||o---------------------------------|----------------------------o||
||----------------------------------|-----------------5-5-4-4-----||
||--8-8-8-8-9-9-9-9-8-8-8-8-9-9-9-9-|-8-8-8-8-9-9-9-9---------5---||
||o-6-6-6-6-7-7-7-7-6-6-6-6-7-7-7-7-|-6-6-6-6-7-7-7-7------------o||
||----------------------------------|-----------------------------||

||----------------------------------|-----------------------------------||
||o---------------------------------|----------------------------------o||
||----------------------------------|-----------------5-5-4-4-----------||
||--8-8-8-8-9-9-9-9-8-8-8-8-9-9-9-9-|-8-8-8-8-9-9-9-9---------7-7-5-5---||
||o-6-6-6-6-7-7-7-7-6-6-6-6-7-7-7-7-|-6-6-6-6-7-7-7-7------------------o||
||----------------------------------|-----------------------------------||

||----------------------------------|--------------------------------||
||o---------------------------------|-------------------------------o||
||----------------------------------|-----------------------4-5-[6]--||
||--6-6-6-6-7-7-7-7-6-6-6-6-7-7-7-7-|-6-6-6-6-7-7-7-7----------------||
||o-4-4-4-4-5-5-5-5-4-4-4-4-5-5-5-5-|-4-4-4-4-5-5-5-5-5-6-7---------o||
||----------------------------------|--------------------------------||

||----------------------------------|-----------------------------||
||o---------------------------------|----------------------------o||
||----------------------------------|-----------------5-5-4-4-----||
||--8-8-8-8-9-9-9-9-8-8-8-8-9-9-9-9-|-8-8-8-8-9-9-9-9---------5---||
||o-6-6-6-6-7-7-7-7-6-6-6-6-7-7-7-7-|-6-6-6-6-7-7-7-7------------o||
||----------------------------------|-----------------------------||

||----------------------------------|--------------------------------||
||o---------------------------------|-------------------------------o||
||----------------------------------|-----------------------4-5-[6]--||
||--6-6-6-6-7-7-7-7-6-6-6-6-7-7-7-7-|-6-6-6-6-7-7-7-7----------------||
||o-4-4-4-4-5-5-5-5-4-4-4-4-5-5-5-5-|-4-4-4-4-5-5-5-5-5-6-7---------o||
||----------------------------------|--------------------------------||

Q=70
PM| PM| PM| PM|
||-----------------|---------------------|
||o----------------|---------------------|
||-----------------|---------------------|
||-----------------|---------------------|
||o-2--2-2-4S5-5-5-|-9S8-8-8-12S11-11-11-|
||--0--0-0-2S3-3-3-|-7S6-6-6-10S=9--9--9-|

PM| PM|
4x
|---------------------|---------------------||
|---------------------|--------------------o||
|---------------------|---------------------||
|---------------------|---------------------||
|---------2-2-4S5-5S6-|-9S8-8S7-10S9-14S13-o||
|-13tr14--0-0-2S3-3S4-|-7S6-6S5--8S7-12S11--||

|----------|----------------------------|
|----------|----------------------------|
|----------|----------------------------|
|----------|----------------------------|
|-2--------|-----------------7--7-8-5-6-|
|-0--------|-0-0-0-0-0-0-0-0------------|

|----------------------------|-----------------------------|
|----------------------------|-----------------------------|
|----------------------------|-----------------------------|
|----------------------------|-----------------9--9-10-7-8-|
|-----------------7--7-8-5-6-|-----------------7--7--8-5-6-|
|-0-0-0-0-0-0-0-0------------|-0-0-0-0-0-0-0-0-------------|

7x
||-----------------------------------------------------------------------||
||o---------------------------------------------------------------------o||
||-----------------------------------------------------------------------||
||----------------------------------9-9-9-9-10-10-10-10-7-7-7-7-8-8-8-8--||
||o-----------------7-7-7-7-7-7-7-7-7-7-7-7--8--8--8--8-5-5-5-5-6-6-6-6-o||
||--0-0-0-0-0-0-0-0------------------------------------------------------||

4x
||--------------------------------||------|
||o--------------------------[6]-o||------|
||--------------------------------||------|
||------------------9----(9)------||------|
||o-----------------7----(7)-----o||-2----|
||--0-0-0-0-0-0-0-0---------------||-0----|

||----------------------|------------------------||
||o---------------------|-----------------------o||
||----------------------|------------------------||
||----------------------|------------------------||
||o-5-5-5-5S8-8-8-8S7-7-|-6-6-6-6S9-9-9-9S8-8S9-o||
||--3-3-3-3S6-6-6-6S5-5-|-4-4-4-4S7-7-7-7S6-6S7--||

||----------------------|------------------------||
||o---------------------|-----------------------o||
||----------------------|------------------------||
||--5-5-5-5S8-8-8-8S7-7-|-6-6-6-6S9-9-9-9S8-8S9--||
||o-3-3-3-3S6-6-6-6S5-5-|-4-4-4-4S7-7-7-7S6-6S7-o||
||--3-3-3-3S6-6-6-6S5-5-|-4-4-4-4S7-7-7-7S6-6S7--||

||----------------------|------------------------||
||o---------------------|-----------------------o||
||----------------------|------------------------||
||--5-5-5-5S8-8-8-8S7-7-|-6-6-6-6S9-9-9-9S8-8S9--||
||o-3-3-3-3S6-6-6-6S5-5-|-4-4-4-4S7-7-7-7S6-6S7-o||
||----------------------|------------------------||

|----------|--------*|
|----------|--------*|
|----------|--------*|
|-5--------|-(5)----*|
|-3--------|-(3)----*|
|----------|--------*|
Otros videos de esta canción
    54 exhibiciones
      • ½ Tono
      • A
      • Bb
      • B
      • C
      • Db
      • D
      • Eb
      • E
      • F
      • F#
      • G
      • Ab
    • Agregar a la lista

    Afinação da cifra

    Afinador online

      Ops (: Contenido disponible solo en portugués.
      OK