Cifra Club

My Empire's Doom

Emperor

Cifrado: Principal (guitarra y guitarra eléctrica)
Selo Cifra Club: esta cifra foi revisada para atender aos critérios oficiais da nossa Equipe de Qualidade.
tono: G
||------------------------------------------|--------------------------|
||o-----------------------------------------|--------------------------|
||------------------------------------------|--------------------------|
||--9-9-9-9-9-9-9-9-10-10-10-10-10-10-10-10-|-4-4-4-4-4-4-4-4----------|
||o-7-7-7-7-7-7-7-7--8--8--8--8--8--8--8--8-|-2-2-2-2-2-2-2-2-5--------|
||------------------------------------------|-------------------6-5-3--|

5x
|-----------------------------------------|----------------------------------||
|-----------------------------------------|---------------------------------o||
|-----------------------------------------|----------------------------------||
|-9-9-9-9-9-9-9-9-10-10-10-10-10-10-10-10-|-4-4-4-4-4-4-4-4-7-7-7-7-8-8-8-8--||
|-7-7-7-7-7-7-7-7--8--8--8--8--8--8--8--8-|-2-2-2-2-2-2-2-2-5-5-5-5-6-6-6-6-o||
|-----------------------------------------|----------------------------------||

Q=80
4x
||------------------|------------------||
||o-----------------|-----------------o||
||------------------|------------------||
||------------------|------------------||
||o-5--5-4-6--3-2-3-|-5--5-4-6--3-2-3-o||
||--3--3-2-4--1-0-1-|-3--3-2-4--1-0-1--||

Q=140
|----------|--------------|
|----------|--------------|
|----------|--------------|
|----------|--------8\\----|
|-2--------|-(2)----------|
|-0--------|-(0)----------|

|-----------------|-----------------|
|-----------------|-----------------|
|-----------------|-----------------|
|-4-5-4-5-4-5-8-5-|-4-5-4-5-4-5-8-5-|
|-2-3-2-3-2-3-6-3-|-2-3-2-3-2-3-6-3-|
|-----------------|-----------------|

||------------------|------------------||
||o-----------------|-----------------o||
||------------------|------------------||
||--4-5-4-5-4-5-8-5-|-4-5-4-5-4-5-8-5--||
||o-2-3-2-3-2-3-6-3-|-2-3-2-3-2-3-6-3-o||
||------------------|------------------||

||------------------|------------------||
||o-----------------|-----------------o||
||------------------|------------------||
||------------------|------------------||
||o-4-5-4-5-4-5-8-5-|-4-5-4-5-4-5-8-5-o||
||--2-3-2-3-2-3-6-3-|-2-3-2-3-2-3-6-3--||

||------------------|------------------||
||o-----------------|-----------------o||
||------------------|------------------||
||--4-5-4-5-4-5-8-5-|-4-5-4-5-4-5-8-5--||
||o-2-3-2-3-2-3-6-3-|-2-3-2-3-2-3-6-3-o||
||------------------|------------------||

Q=70
||------------------|------------------||------|
||o-----------------|-----------------o||------|
||------------------|------------------||------|
||------------------|------------------||------|
||o-4-5-4-5-4-5-8-5-|-4-5-4-5-4-5-8-5-o||-2----|
||--2-3-2-3-2-3-6-3-|-2-3-2-3-2-3-6-3--||-0----|

Q=70
||------------------------|-------------------------||
||o-----------------------|------------------------o||
||------------------------|-------------------------||
||------------------------|-------------------------||
||o-4-5-4-2-4---4-5-4-2-3-|-4-5-4-2-4---4-5-4-2-3--o||
||--2-3-2-0-2---2-3-2-0-1-|-2-3-2-0-2---2-3-2-0-1---||

||--------------------------|---------------------------||
||o-------------------------|--------------------------o||
||--------------------------|---------------------------||
||--------------------------|---------------------------||
||o-9-10-9-7-9---9-10-9-7-3-|-9-10-9-7-9---9-10-9-2-3--o||
||--7--8-7-5-7---7--8-7-5-1-|-7--8-7-5-7---7--8-7-0-1---||

||------------------------|-------------------------||
||o-----------------------|------------------------o||
||------------------------|-------------------------||
||------------------------|-------------------------||
||o-4-5-4-2-4---4-5-4-2-3-|-4-5-4-2-4---4-5-4-2-3--o||
||--2-3-2-0-2---2-3-2-0-1-|-2-3-2-0-2---2-3-2-0-1---||

||--------------------------|---------------------------||
||o-------------------------|--------------------------o||
||--------------------------|---------------------------||
||--------------------------|---------------------------||
||o-9-10-9-7-9---9-10-9-7-3-|-9-10-9-7-9---9-10-9-2-3--o||
||--7--8-7-5-7---7--8-7-5-1-|-7--8-7-5-7---7--8-7-0-1---||

||------------------------|-------------------------||
||o-----------------------|------------------------o||
||------------------------|-------------------------||
||------------------------|-------------------------||
||o-4-5-4-2-4---4-5-4-2-3-|-4-5-4-2-4---4-5-4-2-3--o||
||--2-3-2-0-2---2-3-2-0-1-|-2-3-2-0-2---2-3-2-0-1---||

Q=100
||------------------------------------------|---------------------------|
||o-----------------------------------------|---------------------------|
||------------------------------------------|---------------------------|
||--9-9-9-9-9-9-9-9-10-10-10-10-10-10-10-10-|-4-4-4-4-4-4-4-4-----------|
||o-7-7-7-7-7-7-7-7--8--8--8--8--8--8--8--8-|-2-2-2-2-2-2-2-2-5---------|
||------------------------------------------|-------------------6-5-3---|

5x
|-----------------------------------------|----------------------------------||
|-----------------------------------------|---------------------------------o||
|-----------------------------------------|----------------------------------||
|-9-9-9-9-9-9-9-9-10-10-10-10-10-10-10-10-|-4-4-4-4-4-4-4-4-7-7-7-7-8-8-8-8--||
|-7-7-7-7-7-7-7-7--8--8--8--8--8--8--8--8-|-2-2-2-2-2-2-2-2-5-5-5-5-6-6-6-6-o||
|-----------------------------------------|----------------------------------||

Q=80
4x
||------------------|------------------||
||o-----------------|-----------------o||
||------------------|------------------||
||------------------|------------------||
||o-5--5-4-6--3-2-3-|-5--5-4-6--3-2-3-o||
||--3--3-2-4--1-0-1-|-3--3-2-4--1-0-1--||

Q=140
|----------|--------|
|----------|--------|
|----------|--------|
|----------|--------|
|-2--------|-(2)----|
|-0--------|-(0)----|

|-----------------|-----------------|
|-----------------|-----------------|
|-----------------|-----------------|
|-4-5-4-5-4-5-8-5-|-4-5-4-5-4-5-8-5-|
|-2-3-2-3-2-3-6-3-|-2-3-2-3-2-3-6-3-|
|-----------------|-----------------|

||------------------|------------------||
||o-----------------|-----------------o||
||------------------|------------------||
||--4-5-4-5-4-5-8-5-|-4-5-4-5-4-5-8-5--||
||o-2-3-2-3-2-3-6-3-|-2-3-2-3-2-3-6-3-o||
||------------------|------------------||

||------------------|------------------||
||o-----------------|-----------------o||
||------------------|------------------||
||------------------|------------------||
||o-4-5-4-5-4-5-8-5-|-4-5-4-5-4-5-8-5-o||
||--2-3-2-3-2-3-6-3-|-2-3-2-3-2-3-6-3--||

||------------------|------------------||
||o-----------------|-----------------o||
||------------------|------------------||
||--4-5-4-5-4-5-8-5-|-4-5-4-5-4-5-8-5--||
||o-2-3-2-3-2-3-6-3-|-2-3-2-3-2-3-6-3-o||
||------------------|------------------||

||------------------|------------------||
||o-----------------|-----------------o||
||------------------|------------------||
||------------------|------------------||
||o-4-5-4-5-4-5-8-5-|-4-5-4-5-4-5-8-5-o||
||--2-3-2-3-2-3-6-3-|-2-3-2-3-2-3-6-3--||

|-----------------|-----------------*|
|-----------------|-----------------*|
|-----------------|-----------------*|
|-4-5-4-5-4-5-8-5-|-4-5-4-5-4-5-8-5-*|
|-2-3-2-3-2-3-6-3-|-2-3-2-3-2-3-6-3-*|
|-----------------|-----------------*|
Otros videos de esta canción
    17 exhibiciones
      • ½ Tono
      • A
      • Bb
      • B
      • C
      • Db
      • D
      • Eb
      • E
      • F
      • F#
      • G
      • Ab
    • Agregar a la lista

    Afinação da cifra

    Afinador online

      Ops (: Contenido disponible solo en portugués.
      OK