Cifra Club

Sworn

Emperor

Cifrado: Principal (guitarra y guitarra eléctrica)
Selo Cifra Club: esta cifra foi revisada para atender aos critérios oficiais da nossa Equipe de Qualidade.
tono: A
>From Demgoroth ( D* )


~ : let ring
 : AH
° : NH

Intro
|--------------------------------------------------------------------|-----------------------------
|--------------------------------------------------------------------|-----------------------------
|--------------------------------------------------------------------|-----------------------------
|---7~--------------7810781078107810--------8--6--5--8------------|-----------------------------
|---7~---------------------------------------------------------------|-----------------------------
|---5~---------------------------------------------------------------|------------------------------

repeat this riff
|--------------------------------------------------------------------------|------------------------
|--------------------------------------------------------------------------|-----------------------
|--------------------------------------------------------------------------|-----------------------
|--7--777--777--777--8--8888--88-3-2---7--777--777--777--8665-----------|--------------------------
|--7--777--777--777--8--8888--88-3-2---7--777--777--777--8665--------------|-----------------------
|--5--555--555--555--6--6666--66-1-0---5--555--555--555--6443-----------|---------------------

RIFF A
|--------------------------------------------------------------------------------|-----------------
|--------------------------------------------------------------------------------|-----------------
|--------------------------------------------------------------------------------|-----------------
|--7--777--777--777--8--------------7--777--777--777--8665----------|-----------------
|--7--777--777--777--8-888-----888------------7--777--777--777--8665-------------|-----------------
|--5--555--555--555--6-666-----666------------5--555--555--555--6443----------|--------------


Riff B
                                           trill
|--------------------------------------------------------------------------|-----------------------
|----------------------------5-6-5(6)--------------------------------------|-----------------------------
|------------------------1-2-------------------------------------------4---|-------------------------
|--2--222--222--222--2-3----------------6--666--666--666-------5-8-6~------|---------------------------------------
|--2--222--222--222---------------------6--666--666--666---6-7-------------|----------------------------------
|--0--000--000--000---------------------4--444--444--444-------------------|---------------------------------

Riff C
-------------------------------------------------|-------------------------------------------------
|------------------------------------------------|-------------------------------------------------
|------------------------------------------------|--------------------------------------------------
|-----6----6------6-----6-----7---6---6---4h6----|--------------------------------------------------------------
|------------------------------------------------|--------------------------------------------------
|------444----444---444---44---44--44---44-------|------------------------------------------------------------------

Riff D
I just can't figure out the keyboard melody. Here's the guitar part :
|------------------------|-------------------------------------------------------------------------
|------------------------|-------------------------------------------------------------------------
|---4~------3~-----------|---------------------------------------------------------------------------
|---4~--5~--3~--/88------|---------------------------------------------------------------------------
|---2~--5~--1~-------5~--|--------------------------------------------------------------------------
|-------3~---------------|---------------------------------------------------------------------------
There's an ascending chord pattern that is too drenched up with distorsion and keyboards for me to figure out.


Riff E
                                                                                                        the keyboards do a little melody over the last                                                                                                  bars of the riff. It sounds somewhat like                                                                                                       this.
|-------------------------------------------------------------------------|------------------------
|-------------------------------------------------------------------------|------------------------
|-------------------------------------------------------------------------|------5------------------
|--2-22222-3-3333p2-2-----3-----0h2---2-22222-3-3333p2--2-----2-----3h6---|-----3-432-------------------
|--2-22222-3-3333p2-------------------2-22222-3-3333p2--------------------|----------321---------------
|--0-00000-1-1111p0---000---000-------0-00000-1-1111p0----000---000-------|-------------------------

Back to Riff A w/o the first two *.

                          Riff F
  °
--17\-(whammy dive)--------------------------------------------------------------------|-----------
---------------------------------------------------------------------------------------|----------
---------------------------------------------------------------------------------------|----------
--------------------------------------------22-----------5h6---------------------------|---------------
------------------------3~----5h6--------3~-22-----3~--------------3~----4p3--5p4p3h4--|------
---------------------1~----4p3---1p0-1~-----00--1~----4p3---1p0-1~-----11---11---------|--------------

Riff1
|-------------------------------------------------------------------------------------------------
|--------------------------------------------------------------------------------------------------
|-----------55555555------------------------------------------------55555555558-8-8-8-8-8-8-8-----
|---444444444444444444444445555555554444447777777777774444444444444444444444441010101010101010----
|-------------------------------------------------------------------------------------------------
|-------------------------------------------------------------------------------------------------

----------------------------------------------------------------------------------------------------------|
------------------------------------------------------------------------------------------------------7h9-|
---------------555555555555------------------77776666555556666-------------555555555555-----------7h9-----|
---444444444444444444444444444444444555555555-----------------4444444444444444444444444--6h7-9h10---------|
----------------------------------------------------------------------------------------------------------|
----------------------------------------------------------------------------------------------------------|

Riff2                                                           Riff 3:Play riff 1 + riff 2 together*
|------------------------------------------|-------------------------------
|------------------------------------------|-------------------------------
|---------------------------------------5~-|-------------------------------
|--------5\4-------5\4_3/4/7\4----5\4---4~-|-------------------------------
|-444-44-5\4-444-4-5\4\3/4/7\4-44-5\4---3~-|-------------------------------
|-222-22-3\2-222-2-3\2\1/2/5\2-22-3\2------|-------------------------------

(*) careful, remember to stop playing the rhythm part when the lead guitar does the ascending pattern.

Riff G                                                                                  back to riffs 1 & 2 played together.
|-------------------------------------------------------------------|------------------------------
|--------------------------109--8-----------------------------------|-------------------------------
|--8-6-9--------4/--------9-8--7--------------------------8--7--7---|-----------------------------
|--8-6-9--------4/---22---7-6--5--------------------------7--7--6---|-----------------------------
|--6-4-7-764764-2/---22--------------------4--------4--7--6--5--5---|-----------------------------
|--------------------00-----------2--4--5-----1--5------------------|-----------------------------


The order is
intro/A/B/C/D/E/A(w/o the first two harmonics)/F/1/2/3/G/3/G/3/F/B/C/D/end

Great stuff!

Please mail to me any comments.
Otros videos de esta canción
    333 exhibiciones
      • ½ Tono
      • A
      • Bb
      • B
      • C
      • Db
      • D
      • Eb
      • E
      • F
      • F#
      • G
      • Ab
    • Agregar a la lista

    Afinación de cifrado

    Afinador online

      OK