Cifra Club

Wrath Of The Tyrant

Emperor

Cifrado: Principal (guitarra y guitarra eléctrica)
Selo Cifra Club: esta cifra foi revisada para atender aos critérios oficiais da nossa Equipe de Qualidade.
tono: E
|-----------------------------|-----------------------------|
|-----------------------------|-----------------------------|
|-----------------------------|-----------------------------|
|-----------------------------|-----------------------------|
|-2-2-2-2-2-2-2-2-2-2-2-2-2-2-|-5-5-5-5-5-5-5-4-4-4-4-4-5-4-|
|-0-0-0-0-0-0-0-0-0-0-0-0-0-0-|-3-3-3-3-3-3-3-2-2-2-2-2-3-2-|

|---------------------------------|---------------------------------|
|---------------------------------|---------------------------------|
|---------------------------------|---------------------------------|
|---------------------------------|---------------------------------|
|-2-2-2-2-3-3-3-3-5-5-5-5-5-5-5-5-|-4-4-4-4-8-8-8-8-8-8-8-8-8-8-8-8-|
|-0-0-0-0-0-0-0-0-0-0-0-0-3-3-3-3-|-2-2-2-2-6-6-6-6-6-6-6-6-6-6-6-6-|

||----------------------------------|----------------------------------|
||o---------------------------------|----------------------------------|
||----------------------------------|----------------------------------|
||----------------------------------|----------------------------------|
||o-2-2-2-2-2-2-2-2-3-3-3-3-3-3-3-3-|-5-5-5-5-5-5-5-5-4-4-4-4-4-4-4-4--|
||--0-0-0-0-0-0-0-0-0-0-0-0-0-0-0-0-|-3-3-3-3-3-3-3-3-2-2-2-2-2-2-2-2--|

5x
|---------------------------------|----------------------------------||------|
|---------------------------------|---------------------------------o||------|
|---------------------------------|----------------------------------||------|
|---------------------------------|----------------------------------||------|
|-2-2-2-2-3-3-3-3-5-5-5-5-5-5-5-5-|-4-4-4-4-8-8-8-8-8-8-8-8-8-8-8-8-o||-8----|
|-0-0-0-0-0-0-0-0-0-0-0-0-3-3-3-3-|-2-2-2-2-6-6-6-6-6-6-6-6-6-6-6-6--||-6----|

Q=165
||----------------------------------|----------------------------------|
||o---------------------------------|----------------------------------|
||----------------------------------|----------------------------------|
||----------6-6-6-6---------6-6-6-6-|---------6-6-6-6------------------|
||o-4-4-4-4---------4-4-4-4---------|-4-4-4-4---------4-4-4-4----------|
||----------------------------------|-------------------------3-3-3-3--|

4x
|---------------------------------|----------------------------------||
|---------------------------------|---------------------------------o||
|---------------------------------|----------------------------------||
|---------3-3-3-3---------3-3-3-3-|---------3-3-3-3---------4-4-4-4--||
|-1-1-1-1---------1-1-1-1---------|-1-1-1-1---------2-2-2-2---------o||
|---------------------------------|----------------------------------||

|---------------------------------|
|---------------------------------|
|---------------------------------|
|-6-6-6-6-7-7-7-7-8-8-8-8-9-9-9-9-|
|-4-4-4-4-5-5-5-5-6-6-6-6-7-7-7-7-|
|---------------------------------|

|-------------------------------------------------|
|-------------------------------------------------|
|-------------------------------------------------|
|-10-10-10-10-11-11-11-11-12-12-12-12-13-13-13-13-|
|--8--8--8--8--9--9--9--9-10-10-10-10-11-11-11-11-|
|-------------------------------------------------|

|-------------------------------------------------|
|-------------------------------------------------|
|-------------------------------------------------|
|-14-14-14-14-14-14-14-14-14-14-14-14-14-14-14-14-|
|-12-12-12-12-12-12-12-12-12-12-12-12-12-12-12-12-|
|-------------------------------------------------|

|-------------------------------------------------|
|-------------------------------------------------|
|-------------------------------------------------|
|-14-14-14-14-14-14-14-14-14-14-14-14-14-14-14-14-|
|-12-12-12-12-12-12-12-12-12-12-12-12-12-12-12-12-|
|-------------------------------------------------|

|-------------------------------------------------|
|-------------------------------------------------|
|-------------------------------------------------|
|-13-13-13-13-13-13-13-13-13-13-13-13-13-13-13-13-|
|-12-12-12-12-12-12-12-12-12-12-12-12-12-12-12-12-|
|-------------------------------------------------|

|-------------------------------------------------|
|-------------------------------------------------|
|-------------------------------------------------|
|-13-13-13-13-13-13-13-13-13-13-13-13-13-13-13-13-|
|-12-12-12-12-12-12-12-12-13-13-13-13-13-13-13-13-|
|-------------------------------------------------|

|-------------------------------------------------|
|-------------------------------------------------|
|-------------------------------------------------|
|-14-14-14-14-14-14-14-14-14-14-14-14-14-14-14-14-|
|-12-12-12-12-12-12-12-12-12-12-12-12-12-12-12-12-|
|-------------------------------------------------|

|-------------------------------------------------|
|-------------------------------------------------|
|-------------------------------------------------|
|-14-14-14-14-14-14-14-14-14-14-14-14-10-10-10-10-|
|-12-12-12-12-12-12-12-12-12-12-12-12-12-12-12-12-|
|-------------------------------------------------|

|-------------------------------------------------|
|-------------------------------------------------|
|-------------------------------------------------|
|-13-13-13-13-13-13-13-13-13-13-13-13-13-13-13-13-|
|-12-12-12-12-12-12-12-12-12-12-12-12-12-12-12-12-|
|-------------------------------------------------|

|-------------------------------------------------|
|-------------------------------------------------|
|-------------------------------------------------|
|-13-13-13-13-13-13-13-13-13-13-13-13-13-13-13-13-|
|-13-13-13-13-13-13-13-13-13-13-13-13-13-13-13-13-|
|-------------------------------------------------|

||--------------------------------------------------|
||o-------------------------------------------------|
||--------------------------------------------------|
||--10-10-10-10-10-10-10-10-10-10-10-10-10-10-10-10-|
||o--8--8--8--8--8--8--8--8--8--8--8--8--8--8--8--8-|
||---8--8--8--8--8--8--8--8--8--8--8--8--8--8--8--8-|

|--------------------------------------------------|
|--------------------------------------------------|
|--------------------------------------------------|
|-10-10-10-10-10-10-10-10-10-10-10-10-10-10-10-10--|
|--8--8--8--8--8--8--8--8--8--8--8--8--8--8--8--8--|
|--8--8--8--8--8--8--8--8--8--8--8--8--8--8--8--8--|

|---------------------------------|----------------------------------||
|---------------------------------|---------------------------------o||
|---------------------------------|----------------------------------||
|-9-9-9-9-9-9-9-9-9-9-9-9-9-9-9-9-|-9-9-9-9-9-9-9-9-9-9-9-9-9-9-9-9--||
|-8-8-8-8-8-8-8-8-8-8-8-8-8-8-8-8-|-8-8-8-8-8-8-8-8-8-8-8-8-8-8-8-8-o||
|-8-8-8-8-8-8-8-8-8-8-8-8-8-8-8-8-|-8-8-8-8-8-8-8-8-8-8-8-8-8-8-8-8--||

||--------------------------------------------------|
||o-------------------------------------------------|
||--------------------------------------------------|
||--14-14-14-14-14-14-14-14-14-14-14-14-14-14-14-14-|
||o-12-12-12-12-12-12-12-12-12-12-12-12-12-12-12-12-|
||--------------------------------------------------|

|--------------------------------------------------|
|--------------------------------------------------|
|--------------------------------------------------|
|-14-14-14-14-14-14-14-14-14-14-14-14-14-14-14-14--|
|-12-12-12-12-12-12-12-12-12-12-12-12-12-12-12-12--|
|--------------------------------------------------|

|-------------------------------------------------|
|-------------------------------------------------|
|-------------------------------------------------|
|-13-13-13-13-13-13-13-13-13-13-13-13-13-13-13-13-|
|-12-12-12-12-12-12-12-12-12-12-12-12-12-12-12-12-|
|-------------------------------------------------|

|--------------------------------------------------||
|-------------------------------------------------o||
|--------------------------------------------------||
|-13-13-13-13-13-13-13-13-13-13-13-13-13-13-13-13--||
|-12-12-12-12-12-12-12-12-13-13-13-13-13-13-13-13-o||
|--------------------------------------------------||

||--------------------------------------------------|
||o-------------------------------------------------|
||--------------------------------------------------|
||--10-10-10-10-10-10-10-10-10-10-10-10-10-10-10-10-|
||o--8--8--8--8--8--8--8--8--8--8--8--8--8--8--8--8-|
||---8--8--8--8--8--8--8--8--8--8--8--8--8--8--8--8-|

|--------------------------------------------------|
|--------------------------------------------------|
|--------------------------------------------------|
|-10-10-10-10-10-10-10-10-10-10-10-10-10-10-10-10--|
|--8--8--8--8--8--8--8--8--8--8--8--8--8--8--8--8--|
|--8--8--8--8--8--8--8--8--8--8--8--8--8--8--8--8--|

|---------------------------------|----------------------------------||
|---------------------------------|---------------------------------o||
|---------------------------------|----------------------------------||
|-9-9-9-9-9-9-9-9-9-9-9-9-9-9-9-9-|-9-9-9-9-9-9-9-9-9-9-9-9-9-9-9-9--||
|-8-8-8-8-8-8-8-8-8-8-8-8-8-8-8-8-|-8-8-8-8-8-8-8-8-8-8-8-8-8-8-8-8-o||
|-8-8-8-8-8-8-8-8-8-8-8-8-8-8-8-8-|-8-8-8-8-8-8-8-8-8-8-8-8-8-8-8-8--||

||------------------------------------------|
||o-----------------------------------------|
||------------------------------------------|
||--14--14-14-14-14-14-14-14-14-14-14-14-14-|
||o-12--12-12-12-12-12-12-12-12-12-12-12-12-|
||------------------------------------------|

|-------------------------------------------------|
|-------------------------------------------------|
|-------------------------------------------------|
|-14-14-14-14-14-14-14-14-14-14-14-14-14-14-14-14-|
|-12-12-12-12-12-12-12-12-12-12-12-12-12-12-12-12-|
|-------------------------------------------------|

|-----------------------------------------|
|-----------------------------------------|
|-----------------------------------------|
|-13--13-13-13-13-13-13-13-13-13-13-13-13-|
|-12--12-12-12-12-12-12-12-12-12-12-12-12-|
|-----------------------------------------|

|---------------------------------------------------||
|--------------------------------------------------o||
|---------------------------------------------------||
|-13-13-13-13-13-13-13-13-13-13-13-13-13-13-13-13---||
|-12-12-12-12-12-12-12-12-13-13-13-13-13-13-13-13--o||
|---------------------------------------------------||

||--------------------------------------------------|
||o-------------------------------------------------|
||--------------------------------------------------|
||--10-10-10-10-10-10-10-10-10-10-10-10-10-10-10-10-|
||o--8--8--8--8--8--8--8--8--8--8--8--8--8--8--8--8-|
||---8--8--8--8--8--8--8--8--8--8--8--8--8--8--8--8-|

|--------------------------------------------------|
|--------------------------------------------------|
|--------------------------------------------------|
|-10-10-10-10-10-10-10-10-10-10-10-10-10-10-10-10--|
|--8--8--8--8--8--8--8--8--8--8--8--8--8--8--8--8--|
|--8--8--8--8--8--8--8--8--8--8--8--8--8--8--8--8--|

|---------------------------------|----------------------------------||
|---------------------------------|---------------------------------o||
|---------------------------------|----------------------------------||
|-9-9-9-9-9-9-9-9-9-9-9-9-9-9-9-9-|-9-9-9-9-9-9-9-9-9-9-9-9-9-9-9-9--||
|-8-8-8-8-8-8-8-8-8-8-8-8-8-8-8-8-|-8-8-8-8-8-8-8-8-8-8-8-8-8-8-8-8-o||
|-8-8-8-8-8-8-8-8-8-8-8-8-8-8-8-8-|-8-8-8-8-8-8-8-8-8-8-8-8-8-8-8-8--||

||--------------------------------------------------|
||o-------------------------------------------------|
||--------------------------------------------------|
||--14-14-14-14-14-14-14-14-14-14-14-14-14-14-14-14-|
||o-12-12-12-12-12-12-12-12-12-12-12-12-12-12-12-12-|
||--------------------------------------------------|

|--------------------------------------------------|
|--------------------------------------------------|
|--------------------------------------------------|
|-14-14-14-14-14-14-14-14-14-14-14-14-14-14-14-14--|
|-12-12-12-12-12-12-12-12-12-12-12-12-12-12-12-12--|
|--------------------------------------------------|

|-------------------------------------------------|
|-------------------------------------------------|
|-------------------------------------------------|
|-13-13-13-13-13-13-13-13-13-13-13-13-13-13-13-13-|
|-12-12-12-12-12-12-12-12-12-12-12-12-12-12-12-12-|
|-------------------------------------------------|

|--------------------------------------------------||
|-------------------------------------------------o||
|--------------------------------------------------||
|-13-13-13-13-13-13-13-13-13-13-13-13-13-13-13-13--||
|-12-12-12-12-12-12-12-12-13-13-13-13-13-13-13-13-o||
|--------------------------------------------------||

||--------------------------------------------------|
||o-------------------------------------------------|
||--------------------------------------------------|
||--10-10-10-10-10-10-10-10-10-10-10-10-10-10-10-10-|
||o--8--8--8--8--8--8--8--8--8--8--8--8--8--8--8--8-|
||---8--8--8--8--8--8--8--8--8--8--8--8--8--8--8--8-|

|--------------------------------------------------|
|--------------------------------------------------|
|--------------------------------------------------|
|-10-10-10-10-10-10-10-10-10-10-10-10-10-10-10-10--|
|--8--8--8--8--8--8--8--8--8--8--8--8--8--8--8--8--|
|--8--8--8--8--8--8--8--8--8--8--8--8--8--8--8--8--|

|---------------------------------|----------------------------------||
|---------------------------------|---------------------------------o||
|---------------------------------|----------------------------------||
|-9-9-9-9-9-9-9-9-9-9-9-9-9-9-9-9-|-9-9-9-9-9-9-9-9-9-9-9-9-9-9-9-9--||
|-8-8-8-8-8-8-8-8-8-8-8-8-8-8-8-8-|-8-8-8-8-8-8-8-8-8-8-8-8-8-8-8-8-o||
|-8-8-8-8-8-8-8-8-8-8-8-8-8-8-8-8-|-8-8-8-8-8-8-8-8-8-8-8-8-8-8-8-8--||

|-----------|---------|
|-----------|---------|
|-----------|---------|
|-10--------|-(10)----|
|-10--------|-(10)----|
|--8--------|--(8)----|

Q=108
||----------------------------------|----------------------------------|
||o---------------------------------|----------------------------------|
||----------------------------------|----------------------------------|
||----------------------------------|----------------------------------|
||o-2-2-2-2-2-2-2-2-3-3-3-3-3-3-3-3-|-5-5-5-5-5-5-5-5-4-4-4-4-4-4-4-4--|
||--0-0-0-0-0-0-0-0-0-0-0-0-0-0-0-0-|-3-3-3-3-3-3-3-3-2-2-2-2-2-2-2-2--|

4x
|---------------------------------|----------------------------------||
|---------------------------------|---------------------------------o||
|---------------------------------|----------------------------------||
|---------------------------------|----------------------------------||
|-2-2-2-2-3-3-3-3-5-5-5-5-5-5-5-5-|-4-4-4-4-8-8-8-8-8-8-8-8-8-8-8-8-o||
|-0-0-0-0-0-0-0-0-0-0-0-0-3-3-3-3-|-2-2-2-2-6-6-6-6-6-6-6-6-6-6-6-6--||

|------*|
|------*|
|------*|
|------*|
|-2----*|
|-0----*|

Otros videos de esta canción
    40 exhibiciones
      • ½ Tono
      • A
      • Bb
      • B
      • C
      • Db
      • D
      • Eb
      • E
      • F
      • F#
      • G
      • Ab
    • Agregar a la lista

    Afinação da cifra

    Afinador online

      Ops (: Contenido disponible solo en portugués.
      OK