Cifra Club

En Tu Presencia

En Espiritu Y En Verdad

Cifrado: Versão 2 (guitarra y guitarra eléctrica)
tono: D
INTRO

E|-----------14-------------------14-------------------------|
B|---17--15------15-------17--15------15---------------------|
G|-------------------14-------------------14-----------------|
D|-----------------------------------------------------------|
A|-----------------------------------------------------------|
E|-----------------------------------------------------------|

E|-----------14-------------------14-------------------------|
B|---17--15------15-------17--15------15---------------------|
G|-------------------12-------------------12-----------------|
D|-----------------------------------------------------------|
A|-----------------------------------------------------------|
E|-----------------------------------------------------------|

E|----------------------------15--14-------------------------|
B|---12--14--15--17-------------------15--14-----------------|
G|-------------------14---14---------------------------------|
D|-----------------------------------------------------------|
A|-----------------------------------------------------------|
E|-----------------------------------------------------------|


D
Me encuentro aquí alegre estoy
Em                            G
Todo temor Tú lo limpiarás Señor
             D
En tu presencia
D
Mis ganancias no brillan más
  Em                      G
Cada corona a Ti la rendiré
             D
En tu presencia
Bm            A                 D
Tiembla el cielo al ver tu grandeza
Bm           A                 D
Reinos y reyes se asombran de Ti
            D             A/C#
En Tu presencia, nos consumes
            Bm         A           D/F#    G
En Tu presencia el cielo y la tierra uno son
           D               A/C#
En Tu presencia renuevas todo
          Bm      A       D/F#       G
En Tu presencia todo se postra ante Ti.

G  O:

Puente:
        Bm         A         G      D/F#
//Espléndido, Hermoso, Glorioso, Majestad sin Igual



ESPERO QUE LES B RVA ES E  PRIMERA TRANSCRIPCION
QUE DIOS LOS BENDIGA
UN SALUC  PA TOC S LOS CHAVOS
DEL GRUPO DE JOVENES "VOX DEI" DE ACTOPAN HGO
00:00 / 00:00
Otros videos de esta canción
Repetir
Otros videos de esta canción
Composición de Kelly Spiker
7 exhibiciones
    • ½ Tono
    • A
    • Bb
    • B
    • C
    • Db
    • D
    • Eb
    • E
    • F
    • F#
    • G
    • Ab
  • Agregar a la lista
    00:00 / 00:00
    OK