Cifra Club

Generación Que Danza

En Espiritu Y En Verdad

Cifrado: Versão 4 (guitarra y guitarra eléctrica)
Selo Cifra Club: esta cifra foi revisada para atender aos critérios oficiais da nossa Equipe de Qualidade.
tono: D
Intro

G|---7[14]--|
D|---7[8]---|

Verso

Tu amor me enseña a danzar.....

G|---7[14]--|
D|---7[8]---| 2 veces


Y con danza daremos gracias...

E|--3-3-2-0-|--3-3-2-0-|----------|
B|----------|----------|--3-3-5-3-|


Tu gloria enseña a gritar.....

G|---7[14]--|
D|---7[8]---| 2 veces


Y con gritos te damos la gloria.....

E|--3-3-2-0-|--3-3-2-0-|----------|
B|----------|----------|--3-3-5-3-|

Pre-coro

Es el desbordar.....

B|--3[4]-5[4]-7[4]-8[4]-|-5[4]-7[4]-8[4]-10[4]-|
G|----------------------|----------------------|

B|-------2[4]-3[4]-5[4]-3[8]-|
G|--4[4]---------------------|

Coro

  D
Seremos la Generación que danza
    Em
Que danza por tu gran Amor oh Dios
G                    D
 Tu gran Amor oh Dios



Solo

E|----------------------------------|
B|-3[8]-5[4]-7[4]----5[8]-7[4]-8[4]-|
G|----------------------------------|

E|-------------------------------------------|
B|-12[8]-14[4]-15[4]----10[8]-8[4]-7[4]-3[1]-|
G|-------------------------------------------|
Otros videos de esta canción
    4 exhibiciones
      • ½ Tono
      • A
      • Bb
      • B
      • C
      • Db
      • D
      • Eb
      • E
      • F
      • F#
      • G
      • Ab
    • Agregar a la lista

    Afinação da cifra

    Afinador online

      Ops (: Contenido disponible solo en portugués.
      OK