Cifra Club

Tuyo Soy

En Espiritu Y En Verdad

Cifrado: Versão 4 (guitarra y guitarra eléctrica)
Selo Cifra Club: esta cifra foi revisada para atender aos critérios oficiais da nossa Equipe de Qualidade.
tono: C#m

E|---------------------------------12----|
B|-------9-------9-------9----9/10-----9-|
G|----------9| H11---9---------------------
D|---9/11--------------------------------|
A|--------------------12-----------------|
E|---------------------------------------|
                                     C#m
E|----------------------------12-------------|
B|--9--------9------9---9/10-----9-----------|
G|-----9| H11----9-----------------------9-----|
9------------------------------------11----|
E|---------------12--------------------11----|
B|-------------------------------------------|

Hola que tal mi nombre es Aridai soy de Chihuahua,
y aquí les dejo la tablatura
del intro de esta canción, cualquier comentario duda,
sugerencia, o petición de
canción, si puedo ayudarles con mucho gusto.
Dios les Bendiga
Otros videos de esta canción
    1 exhibiciones
      • ½ Tono
      • Am
      • Bbm
      • Bm
      • Cm
      • C#m
      • Dm
      • Ebm
      • Em
      • Fm
      • F#m
      • Gm
      • G#m
    • Agregar a la lista

    Afinação da cifra

    Afinador online

      Ops (: Contenido disponible solo en portugués.
      OK