Cifra Club

El Guerrero

Los Enanitos Verdes

Cifrado: Principal (guitarra y guitarra eléctrica)
tono: D
Intro: 
              Bm            Em            A            Bm 
E|---5-7-9-7-5-----5-7-9-7-5-----5-7-9-7-5----5-7-9-7-5--- 
B|-7-----------7-7-----------8-8-----------8-8----------7- 
G|-------------------------------------------------------- 
D|-------------------------------------------------------- 
A|-------------------------------------------------------- 
E|-------------------------------------------------------- 
 
  Bm                   Em 
Algun tiempo atrás en algun lugar 
 A                                            Bm 
murio una mujer y el unico testigo fue el viento 
  Bm 
el moro que bajó de la luna me dijo 
   Em 
si no hay amor tendrás la fortuna 
    A                                          Bm 
dos cosas distintas, los sueños y el destino final 
 
         Em  A           Bm 
Ya se marcho,  no volverá 
           Em    A                     Bm 
un buen guerrero no vuelve la vista atras 
 
         Em  A            Bm 
Ya se marcho,  no volverá 
            Em   A                     Bm 
bajando el rio, soñando con cruzar el mar 
 
 
Solo: 
                          (*) 
                  Bm                           Em 
E|---------------------------------------7-9-10-12-10-9---------------------- 
B|---------------7-10------------7-8-10-----------------10-7-7-7-7-7-7-7/5-5- 
G|---------7/9-7------9-7--6-7-9--------------------------------------------- 
D|-----7-9------------------------------------------------------------------- 
A|-7/9----------------------------------------------------------------------- 
E|--------------------------------------------------------------------------- 
 
   A                         Bm 
-5-7/14-14-12-10-12-10-------10-9-10-9-------------------------------------- 
-----------------------12-10-----------10-----------10/12-10/12-10---------- 
------------------------------------------11-9-11-9----------------11-9----- 
------------------------------------------------------------------------11-9 
---------------------------------------------------------------------------- 
---------------------------------------------------------------------------- 
 
---------------------------------------------------------------------------- 
---------------------------------------------------------------------------- 
---------------------------------------------------------------------------- 
---------------------------------------------------------------------------- 
-7/9-7---------------------------------------------------------------------- 
---------------------------------------------------------------------------- 
 
Bm                       Em 
Algun tiempo atras, sin rumbo son mas 
    A                                        Bm 
un hombre encontró, el rasto del amor en un sueño 
  Bm 
las piedras del camino le dieron la clave 
 Em 
la muerte no termina con todos 
A                                             Bm 
dos cosas distintas los sueños y el destino final 
 
 
         Em  A           Bm 
Ya se marcho,  no volverá 
           Em    A                     Bm 
un buen guerrero no vuelve la vista atras 
 
         Em  A            Bm 
Ya se marcho,  no volverá 
            Em   A                     Bm 
bajando el rio, soñando con cruzar el mar 
 
 
         Em       A    Bm 
Ya se marchoooooooo,  no volverá 
           Em    A                     Bm 
un buen guerrero no vuelve la vista atras
Compositor não encontrado.
1.461 vistas
    • ½ Tono
    • A
    • Bb
    • B
    • C
    • Db
    • D
    • Eb
    • E
    • F
    • F#
    • G
    • Ab
  • Agregar a la lista

    0 comentarios

    Ver todos los comentarios

    ¿Lograste tocar?

    0 Tocaron 0 Aún no

    ¡Graba un video tocando El Guerrero y envíanoslo!

    00:00 / 00:00
    Outros vídeos desta música
    Repetir Calidad Automático
    Outros vídeos desta música
    00:00 / 00:00
    Automático
    OK