Cifra Club

Lamento Boliviano

Los Enanitos Verdes

Cifrado: Principal (guitarra y guitarra eléctrica)
Selo Cifra Club: esta cifra foi revisada para atender aos critérios oficiais da nossa Equipe de Qualidade.
tono: Em
[Primeira Parte]

      Em 
Me quieren agitar

Me incitan a gritar
 Bm 
Soy como una roca

Palabras no me tocan
  Am 
Adentro hay un volcán

Que pronto va a estallar
Em                       B7
   Yo quiero estar tranquilo

Em 
Es mi situación, una desolación
 Bm 
Soy como un lamento, lamento boliviano
        Am 
Que un día empezó y no va a terminar
Em                  B7
   Ya a nadie hace daño

[Pré-Refrão]

Em         Bm 
Uoh, yoh, yoh, yoh, oh
Am               Em  B7
Eh, eh, eh, eh, yeh

[Refrão]
 
              Em            Bm 
Y yo estoy aquí borracho y loco
          Am                       Em  B7
Y mi corazón idiota siempre brillará
            Em                Bm 
Y yo te amaré, te amaré por siempre
             Am 
Nena, no te peines en la cama
                   Em           B7
Que los viajantes se van a atrasar

[Solo] Em  Bm  Am  Em  B7
       Em  Bm  Am  Em  B7

[Tab - Solo]

E|------------------------------------------|
B|-------7-8-7--------------7-8~------------|
G|-----9-------9----------7-----------------|
D|-/9------------9~-----9-------------------|
A|------------------------------------------|
E|------------------------------------------|

E|-------------------------------------12---|
B|----------------------------------12------|
G|-9p7-9/11-------------------14b16---------|
D|----------7----9p7~-----------------------|
A|------------------------------------------|
E|------------------------------------------|

E|------------------------------------------|
B|-15b17r15p12------------------------------|
G|--------------14b15r14p12----14~\---------|
D|------------------------------------------|
A|------------------------------------------|
E|------------------------------------------|

E|------------------------------------------|
B|------------------------------------------|
G|-b16r14p12---14~p12\11-12\11~-------------|
D|------------------------------9-7-9~------|
A|------------------------------------------|
E|------------------------------------------|

E|-------12-14b15----14p12----15p14p12------|
B|-----x-------------------15----------15---|
G|---x--------------------------------------|
D|-x----------------------------------------|
A|------------------------------------------|
E|------------------------------------------|

E|-14b15r14-12------------------------------|
B|-------------15b17r15-12------------------|
G|-------------------------14b16r14p12--14~-|
D|------------------------------------------|
A|------------------------------------------|
E|------------------------------------------|

E|------------------------------------------|
B|------------------------------------------|
G|----12-14-b15r14p12--14b16r14p12\11/12\...|
D|-14---------------------------------------|
A|------------------------------------------|
E|------------------------------------------|

E|---------------------15/17---14---14/15---|
B|------------------------------------------|
G|...\11/12------------12/14---11---11/12---|
D|------------------------------------------|
A|---------14-12-14-------------------------|
E|------------------------------------------|

E|-15-15----12/14----10/12------14/15-------|
B|------------------------------------14----|
G|-----------9/11---------------------------|
D|------------------------------------------|
A|------------------------------------------|
E|------------------------------------------|

E|-12/14-----10/12--------------------------|
B|-------12--------10-----------------------|
G|------------------------14b16r14~-12------|
D|-------------------------------------14~--|
A|------------------------------------------|
E|------------------------------------------|

[Pré-Refrão]

Em         Bm 
Uoh, yoh, yoh, yoh, oh
Am               Em  B7
Eh, eh, eh, eh, yeh

[Refrão]
 
              Em            Bm 
Y yo estoy aquí borracho y loco
          Am                       Em  B7
Y mi corazón idiota siempre brillará
            Em                 Bm 
Y yo te amaré, te amaré por siempre
             Am 
Nena, no te peines en la cama
                   Em           B7
Que los viajantes se van a atrasar

              Em            Bm 
Y yo estoy aquí borracho y loco
          Am                       Em  B7
Y mi corazón idiota siempre brillará
            Em                 Bm 
Y yo te amaré, te amaré por siempre
             Am 
Nena, no te peines en la cama
                   Em           B7
Que los viajantes se van a atrasar

[Final] Em  Bm  Em  Bm 
        Am  Bm  Em  B7
00:00 / 00:00
Otros videos de esta canción
Repetir
Otros videos de esta canción
377.596 exhibiciones
  • Simplificar cifrado
    • ½ Tono
    • Am
    • Bbm
    • Bm
    • Cm
    • C#m
    • Dm
    • Ebm
    • Em
    • Fm
    • F#m
    • Gm
    • G#m
  • Agregar a la lista

Afinación de cifrado

Afinador online

    00:00 / 00:00
    OK