Cifra Club

Aprenda

Lamento Boliviano

Enanitos Verdes

Tablatura: Principal (guitarra)
Tom: C
Intro: (Instrumento de viento)

Em
Me quieren agitar, me incitan a gritar
Bm
soy como una roca, palabras no me tocan
Am7
adentro hay un volcán que pronto va a estallar
Em                 B7
yo quiero estar tranquilo.
Em
Es mi situación,una desolación
Bm
soy como un lamento, lamento boliviano
     Am7
que un día empezó y no va a terminar
Em           B7
ya nadie hace daño.

Em          Bm
uoh, yoh, yoh, yoh, oh, oh
Am7           Em-B7
eh, eh, eh, eh, yeh.

Coro:

            Em          Bm
Y yo estoy aquí borracho y loco
         Am7                    Em-B7
y mi corazón idiota siempre brillará
           Em           Bm
y yo te amaré, te amaré por siempre
        Am7
nena no te peines en la cama
                 Em          B7
que los viajantes se van a atrasar.

Solo 1:

Guitarra 1:

E|----------------------------------------12---------------------------|
B|---7-8 7--------7-8 7-----------------12---b15-12--------------------|
G|-9-------9-----7-------b9-9-------b14-------------b14-12-14-b14-12-14|
D|9---------9--9--------------7-9-7------------------------------------|
A|---------------------------------------------------------------------|
E|---------------------------------------------------------------------|

E|-----------------------12-b14-15-15-14-12-15-14-12-------------------|
B|---------------------12----------------------------b15-15 12---------|
G|12-11-12-11--------------------------------------------------14-12-14|
D|---------------------------------------------------------------------|
A|------------14-12-14-------------------------------------------------|
E|---------------------------------------------------------------------|

E|-------------------------------------14-14/15-15-14-12---14/15-------|
B|---------------------------------------------------------------14----|
G|------12-14/12-14-12/11/12/11/12--14---------------------------------|
D|12-14----------------------------------------------------------------|
A|---------------------------------------------------------------------|
E|---------------------------------------------------------------------|

e|13/14---9/12------------------------|
B|-----12------10-b10-10-8------------|
G|-------------------------9----------|
D|------------------------------------|
A|------------------------------------|
E|------------------------------------|


Guitarra 2: Em - Bm - Am7 - Em - B7
           (Em - Bm - Am7 - Em - B7)

Em          Bm
uoh, yoh, yoh, yoh, oh, oh
Am7           Em-B7
eh, eh, eh, eh, yeh.

Coro:
            Em          Bm
Y yo estoy aquí borracho y loco
         Am7                    Em-B7
y mi corazón idiota siempre brillará
           Em           Bm
y yo te amaré, te amaré por siempre
        Am7
nena no te peines en la cama
                 Em          B7
que los viajantes se van a atrasar
            Em          Bm
Y yo estoy aquí borracho y loco
         Am7                    Em-B7
y mi corazón idiota siempre brillará

            Em           Bm
y yo te amaré, te amaré por siempre
        Am7
nena no te peines en la cama
                 Em          B7
que los viajantes se van a atrasar.

Solo 2:

Guitarra 1:

E|---------------------------------------------------------------------|
B|---------------------------------------------------------------------|
G|12-11--------------------12-11-------------------12-11---------------|
D|------14-12-14---14-12----------14-12-14-14-12----------------10-----|
A|-----------------------14----------------------14-----------10---12--|
E|-------------------------------------------------------10/12---------|

E|---------------------------------------------------------------------|
B|---------------------------------------------------------------------|
G|--------------12-11--------------------------------------------------|
D|--------12-9--------14-12-14-12/14-12--------------------------------|
A|-----10-------------------------------14-----------------------------|
E|10/12----------------------------------------------------------------|

Guitarra 2: Em - Bm - Am7 - Em - B7
           (Em - Bm - Am7)

Símbolos de la tablatura:

b = bend
/ = slide up.
Compositor Natalio Faingold / Raúl F. Gómez
Colaboración y revision:
  • AxlGunnermx
  • Rafael Carlesso
22.530 reproducciones
    • ½ Tom
    • A
    • Bb
    • B
    • C
    • Db
    • D
    • Eb
    • E
    • F
    • F#
    • G
    • Ab
  • Adicionar à lista

    0 comentarios

    Mostrar mais comentários

    ¿Conseguiste tocar?

    14 Tocaron 0 Ainda não

    Grave um vídeo tocando Lamento Boliviano e mande pra gente!

    00:00 / 00:00
    outros vídeos desta música
    repetir qualidade Automático
    Outros vídeos desta música
    00:00 / 00:00
    Automático

    Cifra Club Pro

    Aproveite o Cifra Club com benefícios exclusivos e sem anúncios
    7 dias grátis
    Cifra Club Pro
    Aproveite o Cifra Club com benefícios exclusivos e sem anúncios
    7 dias grátis
    OK