Cifra Club

Tu Cárcel

Los Enanitos Verdes

Cifrado: Principal (guitarra y guitarra eléctrica)
Selo Cifra Club: esta cifra foi revisada para atender aos critérios oficiais da nossa Equipe de Qualidade.
tono: D
[Intro] D  A  Bm  G  A
        D  A  Bm  G  A

[Tab - Solo]

E|------------------------------------------|
B|-5/7--7p5\3~--3-3-5-7-7-7-----------------|
G|------------------------------------------|
D|------------------------------------------|
A|------------------------------------------|
E|------------------------------------------|

E|------------------------------------------|
B|-3/5--5p3\2~--2-2-3-5-5-5-----------------|
G|------------------------------------------|
D|------------------------------------------|
A|------------------------------------------|
E|------------------------------------------|

E|------------------------------------------|
B|------------------------------------------|
G|-6/7-7p6\4~--4-4-4-4-6-7-6-7/9-9~---------|
D|------------------------------------------|
A|------------------------------------------|
E|------------------------------------------|

[Primeira Parte] 

 D                              
Te vas amor, si así lo quieres 
      A
Qué puedo yo hacer
                  Bm           G 
Tu vanidad no te deja entender
                      A
Que en la pobreza se sabe querer

[Pré-Refrão] 

   D             
Quiero llorar
                    A
Y me destroza que pienses así
                     Bm         G
Y mas que ahora me quede sin ti
                    A
Me duele lo que tu vas a sufrir

[Refrão] 

D
  Pero recuerda nadie es perfecto
   A
Y tú lo verás
                    Bm           G
Más de mil cosas mejores tendrás
                A
Pero cariño sincero jamás
D
  Vete olvidando, de eso que hoy dejas
    A           
Y que cambiarás
                     Bm         G
Por la aventura que tu ya verás
                  A
Será tu cárcel y nunca saldrás

[Solo] D  A  Bm  G  A

[Tab - Solo]

E|------------------------------------------|
B|-5/7--7p5\3~--3-3-5-7-7-7-----------------|
G|------------------------------------------|
D|------------------------------------------|
A|------------------------------------------|
E|------------------------------------------|

E|------------------------------------------|
B|-3/5--5p3\2~--2-2-3-5-5-5-----------------|
G|------------------------------------------|
D|------------------------------------------|
A|------------------------------------------|
E|------------------------------------------|

E|------------------------------------------|
B|------------------------------------------|
G|-6/7-7p6\4~--4-4-4-4-6-7-6-7/9-9~---9~----|
D|------------------------------------------|
A|------------------------------------------|
E|------------------------------------------|

[Pré-Refrão] 

   D             
Quiero llorar
                    A
Y me destroza que pienses así
                     Bm         G
Y mas que ahora me quede sin ti
                    A
Me duele lo que tu vas a sufrir

[Refrão] 

D
  Pero recuerda nadie es perfecto
   A
Y tú lo verás
                    Bm           G
Más de mil cosas mejores tendrás
                A
Pero cariño sincero jamás
D
  Vete olvidando, de eso que hoy dejas
    A           
Y que cambiarás
                     Bm         G
Por la aventura que tu ya verás
                  A
Será tu cárcel y nunca saldrás

D
  Pero recuerda nadie es perfecto
   A
Y tú lo verás
                    Bm           G
Más de mil cosas mejores tendrás
                A
Pero cariño sincero jamás
D
  Vete olvidando, de eso que hoy dejas
    A           
Y que cambiarás
                     Bm         G
Por la aventura que tu ya verás
            A               D
Será tu cárcel y nunca saldrás

[Final] A  Bm  G  A  D

[Tab - Solo Final]

Parte 1 De 3
E|-/17-17p15\14~--14-14-15-17-17-17---------|
B|------------------------------------------|
G|------------------------------------------|
D|------------------------------------------|
A|------------------------------------------|
E|------------------------------------------|

Parte 2 De 3
E|-/15-15p14------------14-15-15-15---------|
B|-----------17~--17-17---------------------|
G|------------------------------------------|
D|------------------------------------------|
A|------------------------------------------|
E|------------------------------------------|

Parte 3 De 3
E|-/14-14p12---------------------14----14---|
B|-----------15~--15-15-15-15-17----17------|
G|------------------------------------------|
D|------------------------------------------|
A|------------------------------------------|
E|------------------------------------------|

E|-15-14-15-17-17b19-17p15-17~--------------|
B|------------------------------------------|
G|------------------------------------------|
D|------------------------------------------|
A|------------------------------------------|
E|------------------------------------------|
00:00 / 00:00
Otros videos de esta canción
Repetir
Otros videos de esta canción
259.922 exhibiciones
  • Simplificar cifrado
    • ½ Tono
    • A
    • Bb
    • B
    • C
    • Db
    • D
    • Eb
    • E
    • F
    • F#
    • G
    • Ab
  • Agregar a la lista

Afinación de cifrado

Afinador online

    00:00 / 00:00
    OK