Cifra Club

Não consigo te esqueçer

Endell Magalhães

Cifrado: Principal (guitarra y guitarra eléctrica)
tono: G
Intro: G  C9  G   C9   4x  

solo 2x:[--------------------------------------]
        [----3--5-3-------3--5-3---------------]
        [-2/4----------2/4---------------------]
        [--------------------------------------]
        [--------------------------------------]
        [--------------------------------------]

G    D D4    Em  C         G       D D9    Em  C          G
[-3-2---------------------------3-2-----------------------3v---]
[----3v----3-5---------------------3v----3-5-------------------]
[-------2/4---------------------------2/4----------------------]
[--------------4-5v---4-5-4------------------4-5v---4-5-4------]
[--------------------------5v----------------------------------]
[--------------------------------------------------------------]

Verso 1:
G              D           D4 
Hoje eu sei de coisas que eu falei
  Em          C   C9
e nada vai voltar
G              D        D9        
Mesmo assim as horas vão passar
Em         C
Tudo vai mudar

Verso 2:
G         D            D4
Mas agora temos que aceitar
  Em            C   C9
é hora de recomeçar
G          D         D9
em frente não posso parar
Em                c
Tenho que me encontrar

Pré refrão:
C                 D  D4      Em   
essas coisas so o tempo vai mudar
C                 D  D9        Em     D   D4
do passado eu não quero mais lembrar

Refrão:
G         D      
Me diz o que fazer
   C                   G 
Se tudo faz lembrar voce
G         D       
Me diz o que fazer
      C (pausa ) 
Se eu não consigo te esquecer

solo:
 G            D              C   G             G          D          C
[---------------------------------------------------------10---------------------------------------]
[-10b---10b-8-10v---8-8-10b-8------------------10b---10b-8--10b-8v-----8v----8v---15b-12-15--------]
[----------------------------9v----7v----7v-------------------------7/9---7/9----------------------]
[-------------------------------7/9---7/9--------------------------------------------------12v-----]
[--------------------------------------------------------------------------------------------------]
[--------------------------------------------------------------------------------------------------]
 G                C9                    G                        D
[----------------------------15/17-15v---15--15----------------------------------------------------]
[------15--15/17-15------15----------------17--17-15-----------------------14---12b------14---12v--]
[-14/16--16--------14/16---16-----------------------16-16-16-16-14-14-14-14---14----12/14--14------]
[--------------------------------------------------------------------------------------------------]
[--------------------------------------------------------------------------------------------------]
[--------------------------------------------------------------------------------------------------]
 G                          C9                 G                          D
[----------------------------------------------17-15-14-14/15-14-12-12/14-10-10/12-10--------------]
[------15-15-15------15-17-15v------15-17-15v----------------------------------------12-12-12-10-8-]
[-14/16---------14/16---------14/16----------------------------------------------------------------]
[--------------------------------------------------------------------------------------------------]
[--------------------------------------------------------------------------------------------------]
[--------------------------------------------------------------------------------------------------]
      G (pausa)             G
[------------------------------------]
[-----8v---8/11--8--7/9--7--8--------]
[-9-7------7/10--7--7/9--7--7--------]
[------------------------------------]
[------------------------------------]
[------------------------------------]

Verso 3:
G              D         D4
eu não sei se quero acreditar
   Em                    C   C9
No que o futuro vai mostrar
G               D              D9
Mas la estarei pronto pra enfrentar
  Em                  C  
O que tiver que ser será

Pré refrão:
C                D          Em
No caminho temos pedras pra chutar
C                     D           Em
Depois da queda é levantar e caminhar

Repete refrão:2x

Solo:
  G             C9           G           C9            G            C9       G           C9     G
[--------------------------------------------------------------------------------------------------]
[--------------------------------------------------------------------------------------------------]
[---------------5--5-5--4b-2--------------5--5-5--4b-2--------------5-5--4b-2-------------5-4-2----]
[--5--5--5-5--5--------------5--5--5-5--5--------------5--5--5-5--5----------5--5--5-5--5-------5--]
[--------------------------------------------------------------------------------------------------]
[--------------------------------------------------------------------------------------------------]
00:00 / 00:00
Otros videos de esta canción
Repetir
Otros videos de esta canción
Composición de Endell e Erik Magalhães
Colaboración y revisión:
  • ELM Musical
14 vistas
    • ½ Tono
    • A
    • Bb
    • B
    • C
    • Db
    • D
    • Eb
    • E
    • F
    • F#
    • G
    • Ab
  • Agregar a la lista

    0 comentarios

    Ver todos los comentarios

    ¿Lograste tocar?

    0 Tocaron 0 Aún no

    ¡Graba un video tocando Não consigo te esqueçer y envíanoslo!

    00:00 / 00:00
    OK