Cifra Club

Aprenda

3ª do Plural

Engenheiros do Hawaii

Tablatura: Principal (guitarra)
tono: Dm
[Intro] F  C  F  C  F  C

[Riff]

   F   C
E|-13--12-----------------------------------|
B|-13--13-15-13--13-15-13-------------------|
G|-14--12-----------------------------------|
D|-15---------------------------------------|
A|------------------------------------------|
E|------------------------------------------|

   F   C
E|-13--12-----------------------------------|
B|-13--13-15-13--13-15-13-------------------|
G|-14--12-----------------------------------|
D|-15---------------------------------------|
A|------------------------------------------|
E|------------------------------------------|

   F   C
E|-13--12-----------------------------------|
B|-13--13-15-13--13-15-13-------------------|
G|-14--12-----------------------------------|
D|-15---------------------------------------|
A|------------------------------------------|
E|------------------------------------------|

[Primeira Parte]

F                 C
  Corrida pra vender cigarro
F                 C
  Cigarro pra vender remédio
F                C
  Remédio pra curar a tosse
    G
Tossir, cuspir, jogar pra fora

F                 C
  Corrida pra vender os carros
F                  C
  Pneu, cerveja e gasolina
F              C
  Cabeça pra usar boné
         G
E professar a fé de quem patrocina

( F  Em  G )

[Pré-Refrão]

                   Dm                      C
Eles querem te vender, eles querem te comprar
             Dm                             C
Querem te matar de rir, querem te fazer chorar

[Refrão]

         Gm   
Quem são eles?
Bb9            F       C
    Quem eles pensam que são? 
         Gm   
Quem são eles?
Bb9            F       C
    Quem eles pensam que são? 
         Gm   
Quem são eles?
Bb9            F       C
    Quem eles pensam que são? 
         Gm   
Quem são eles?
Bb9            F       C
    Quem eles pensam que são? 

[Segunda Parte]

F                C
  Corrida contra o relógio
F                     C
  Silicone contra a gravidade
F                     C
  Dedo no gatilho, velocidade
      G
Quem mente, antes diz a verdade

Am             G
   Satisfação garantida
Am                 G
   Obsolescência programada
F             Em               G
  Eles ganham a corrida antes mesmo da largada

[Pré-Refrão]

                   Dm                      C
Eles querem te vender, eles querem te comprar
             Dm                           C
Querem te matar a sede, eles querem te sedar

[Refrão]

         Gm   
Quem são eles?
Bb9            F       C
    Quem eles pensam que são? 
         Gm   
Quem são eles?
Bb9            F       C
    Quem eles pensam que são? 
         Gm   
Quem são eles?
Bb9            F       C
    Quem eles pensam que são? 
         Gm   
Quem são eles?
Bb9            F       C
    Quem eles pensam que são? 

    Gm              Bb9         F
Vender, comprar, vedar os olhos
   C
Jogar a rede contra a parede
Gm
   Querem te deixar com sede
Bb9             F          C
    Não querem nos deixar pensar

         Gm   
Quem são eles?
Bb9            F       C
    Quem eles pensam que são? 
         Gm   
Quem são eles?
Bb9            F       C
    Quem eles pensam que são? 
         Gm    Bb9
Quem são eles?

[Final] F  C  Gm  Bb9  C  Dm
Composição de Humberto Gessinger
1.784 reproducciones
    • ½ Tono
    • Am
    • Bbm
    • Bm
    • Cm
    • C#m
    • Dm
    • Ebm
    • Em
    • Fm
    • F#m
    • Gm
    • G#m
  • Adicionar à lista

    0 comentarios

    Ver todos os comentários

    ¿Conseguiste tocar?

    69 Tocaram 3 Ainda não

    Grave um vídeo tocando 3ª do Plural e nos envie!

    00:00 / 00:00
    outros vídeos desta música
    repetir qualidade Automático
    Outros vídeos desta música
    00:00 / 00:00
    Automático
    OK