Cifra Club

A Fábula

Engenheiros do Hawaii

Tablatura: Luau-mtv (guitarra)
tono: Db (con acordes en la forma de C) Capotraste na 1ª casa
(capo 1ª casa)

   F Bm7(b5)/F Bb7M
E|--1--1---------1-------
B|--1--3---------3-------
G|--2--2---------2-------
D|--3--3---------3-------
A|--3--2---------1-------
E|--1--1---------1--------

(intro 4x)

   Dm
E|--10-------8---10--------8------------
B|--10---8h10----10---8h10--------------
G|--10-----------10---------------------
D|--------------------------------------
A|--------------------------------------
E|--------------------------------------

(Notas no violão para fazer o cavaco ou banjo do gessinger)

   Dm  Bb  Am       Am
E|--10--10--12-------12-----------------
B|--10--11--10--ou---13-----------------
G|--10--10--9--------14-----------------
D|--------------------------------------
A|--------------------------------------
E|--------------------------------------

    C   
E|--12--16------------------------------
B|--13--12------------------------------
G|--12--13------------------------------
D|--------------------------------------
A|--------------------------------------
E|--------------------------------------

(refrão) (dedilhe as notas seguintes)

  F  Bm7(b5)/F      Bb7M (simplificado para Bb no cavaco)
E|-13----13-----------10----------------
B|-10----10-----------11----------------
G|-10----10-----------10----------------
D|--------------------------------------
A|--------------------------------------
E|--------------------------------------

(parte da descida do baixo) Eb Eb7+/D Cm7 Cm7/Bb
E|---10------------------------------------------------
B|---10----mantenha essa nota--------------------------
G|---11----enquanto o outro violão faz a passagem acima
D|-----------------------------------------------------
A|-----------------------------------------------------
E|-----------------------------------------------------

(solo)
E|-17-15-17-13----13------------------------
B|-------------15---------------------------
G|------------------14h13h12h10-----10------
D|-------------------------------12----12---
A|------------------------------------------
E|------------------------------------------

E|-------10h12h13-13h12h10--------------
B-10h13--------------------------------
G|--------------------------------------
D|--------------------------------------
A|--------------------------------------
E|--------------------------------------

E|------------------------------------------
B|-10h9h8h6-8-9-8-6h8h9h8h6h8h9h8h6h8h9h8h6-
G|-----------------------------------------
D|------------------------------------------
A|------------------------------------------
E|------------------------------------------

E|--------20/-20/-----------------------
B|--------------------------------------
G|--7-----------------------------------
D|--------------------------------------
A|--------------------------------------
E|--------------------------------------

E|------12-13/15/13-12------------------
B|---15----------------15---------------
G|--------------------------------------
D|--------------------------------------
A|--------------------------------------
E|--------------------------------------

E|---------------------------------------
B|---------------------------------------
G-13h12h10h12h13h12h10h12h13h12h10h12h13
D|---------------------------------------
A|---------------------------------------
E|---------------------------------------

E|---------------------------------------
B|---------------------------------------
G-13h12h10h12h13h12h10h12h13h12h10h12h13
D|---------------------------------------
A|---------------------------------------
E|---------------------------------------

(parte final)

(3x)
E|--------------------13-15-------------
B|--15-13/15---13-15--------15----------
G|--------------------------------------
D|--------------------------------------
A|--------------------------------------
E|--------------------------------------

E|--------------------------------------11////
B|--15-13/15--------------------11----11--
G|--------------14-13-12--10-12-----12----
D|----------------------------------------
A|----------------------------------------
E|----------------------------------------

Na última
E|--------------------------------------
B|--15-13/15---13-15-13-15--13-15-13-15-
G|--------------------------------------
D|--------------------------------------
A|--------------------------------------
E|--------------------------------------

E|--------------------------------------
B|--13-15-13-15-13-15-------------------
G|--------------------------------------
D|--------------------------------------
A|--------------------------------------
E|--------------------------------------

E|----------------------------------11////
B|------------------11-------11-----------
G|---------14-13-12---10-12-----12--------
D|----------------------------------------
A|----------------------------------------
E|----------------------------------------

E|--------------------------------------
B|--15-13-15----------------------------
G|--------------------------------------
D|--------------------------------------
A|--------------------------------------
E|--------------------------------------
Composição de Humberto Gessinger / Roger Hodgson.
Colaboración y revision:
  • Morgan Sobrenome
12 reproducciones
    • ½ Tono
    • A
    • Bb
    • B
    • C
    • Db
    • D
    • Eb
    • E
    • F
    • F#
    • G
    • Ab
  • Adicionar à lista

    0 comentarios

    Ver todos os comentários
    00:00 / 00:00
    outros vídeos desta música
    repetir qualidade Automático
    Outros vídeos desta música
    00:00 / 00:00
    Automático
    OK