Cifra Club

Desde Aquele Dia

Engenheiros do Hawaii

Cifrado: Principal (guitarra y guitarra eléctrica)
Selo Cifra Club: esta cifra foi revisada para atender aos critérios oficiais da nossa Equipe de Qualidade.
tono: C
[Intro] G4  G  F  G  A 
        G4  G  F  G  A

    G4      G   F     G    A
e|--------------------------------------------------------------------|
B|--------1-0---------------------------------------------------------|
G|------0-------2-----4-----------------------------------------------|
D|----0---------3-----5-------7-5-------5---------7-5-------5---------|
A|--------------3-----5-----------7-------7-5---------7-------7-5-----|
E|--3-----------1-----3----5---------5---------5---------5------------|

e|--------------------------------------------------------------------
B|--------1-0---------------------------------------------------------
G|------0-------2-----4-----------------------------------------------
D|----0---------3-----5-------7-5-------5---------7-5-------5---------
A|--------------3-----5-----------7-------7-5---------7-------7-5-----
E|--3-----------1-----3----5---------5---------5---------5------------

Am
desd'aquele dia

G
Nada me sacia
      Am
Minha vida tá vazia

G
G               F
desd'aquele dia

   G               F
parece que foi ontem
                  E7
   G              E7
parece que chovia
   Am
Um rosto apareceu

  G
(uma heroína)
  Am
O rosto era o seu

      G
      G              F
(seu rosto de menina)

   G               F
parece que foi ontem
                  E7
   G               E7
parece que chovia

Am
Desd'aquele dia

        G
Minhas noites são iguais

   Am
Se eu não vou à luta

G
G               F
eu não tenho paz

   G                 F
se eu não faço guerra
                      E7
G                     E7
eu não tenho mais paz
Am
Não agüento mais

    G
Um dia mais, um dia a menos

Am
São fatais

          G
          G                 F
pra quem tem sonhos pequenos

G                  F
sonhos tão pequenos
                  E7
G                 E7
que nunca têm fim

Am        G     F
Eu só queria saber
   E7             Am     G        F E7
O que você foi fazer no meu caminho
Am         G         F  E7
Eu não consigo entender
Am         G         F       E7
eu não consigo mais viver sozinho, viver sozinho, viver sozinho
Otros videos de esta canción
    236 exhibiciones
      • ½ Tono
      • A
      • Bb
      • B
      • C
      • Db
      • D
      • Eb
      • E
      • F
      • F#
      • G
      • Ab
    • Agregar a la lista

    Afinação da cifra

    Afinador online

      Ops (: Contenido disponible solo en portugués.
      OK