Cifra Club

Ilusão de Ótica

Engenheiros do Hawaii

Tab de bajo: Principal
Intro: E (4x)

G|-----9p7-----------------------|
D|-----------9hp7----------------|  
A|---7------------7--------------|
E|-------------------------------|

Estrofe: E - D (3x)

G|-----------------------------|
D|-----------------------------|
A|----------2-5-4-5/-----------|
E|-0--0-3/5--------------------|

Passagem 1: Os olhos dizem sim... (1x)

G|--------------------------------------------|
D|--------------------------------------------|
A|--4-4-6-4-7-4-6-6---0-0-2-0-4-0-2-2---------|
E|--------------------------------------------|

(Estrofe) 2x

(Passagem 1) 1x

(Intro) 2x

(Estrofe) 3x

(Passagem 1) 1x

(Estrofe) 2x

(Passagem 1) 1x


Passagem 2: D - C#m (2x)

G|-----7/9/11------6/8/9------------------------------|
D|---7-----------6------------------------------------|
A|-5-----------4--------------------------------------|
E|---------------------------7-7-5-7--5-7-5-(2x)------|

Na visão da macrostória... (2x)

G|---------------------------------------|
D|---------------------------------------|
A|---5-55--4-44--------------------------|
E|---------------7-7-5-7--5-7-5-(2x)-----|

Sou cego, não nego...

G-------------------------------------|
D-------------------------------------|
A---5-55--4-44------------------------|
E---------------7--5-7----------------|

Será que você me entende?

G|-------13----------14/16-------13-----------14/16-14-13----13---------------|
D|-14-14----14----14----------14-----14----14-------------14----14------14/---|
A|-------------14-----------------0---0-14--------------------0--0--14--14/---|
E|----------------------------------------------------------------------------|

Não se renda as evidências...
(Passagem 2 com variação no final)

G|-----7/9/11------6/8/9------------------------------|
D|---7-----------6------------------------------------|
A|-5-----------4--------------------------------------|
E|--------------------------7...----------------------|

(Final) Continua tocando até o fim

G|-------------------|
D|-------------------|
A|-------------------|
E|-0-0-2-0-4-0-2-2---|
Composição de Humberto Gessinger
Colaboración y revision:
  • Ricardo Emídio
14 reproducciones

0 comentarios

Ver todos os comentários

¿Conseguiste tocar?

1 Tocaram 0 Ainda não

Grave um vídeo tocando Ilusão de Ótica e nos envie!

00:00 / 00:00
outros vídeos desta música
repetir qualidade Automático
Outros vídeos desta música
00:00 / 00:00
Automático
OK