Cifra Club

O Preço

Engenheiros do Hawaii

Tablatura: Principal
reproducciones 780
Tono: E
Intro 2x: A9  B  C#m

E|--0--------|
B|----0------|
G|------2----|
D|--------2--|
A|-----------|
E|-----------|

Riff 1 - 2x:
E|--12--12---14--14-----12-14-12--16---16---------------|
B|----14--14---16--16---------------17---17-------------|
G|------------------------------------------------------|
D|------------------------------------------------------|
A|------------------------------------------------------|
E|------------------------------------------------------|

    A           B              C#m
O preço que se paga às vezes é alto demais
  A        B        C#m
É alta madrugada, já é tarde demais
              G#
Pra pedir perdão
                F#m     B
Pra fingir que não foi mal

Riff 1 - 2x:
E|--12--12---14--14-----12-14-12--16---16---------------|
B|----14--14---16--16---------------17---17-------------|
G|------------------------------------------------------|
D|------------------------------------------------------|
A|------------------------------------------------------|
E|------------------------------------------------------|

A            B              C#m
Uma luz se apaga num prédio em frente ao meu
 A                   B            C#m
Sempre em frente foi o conselho que ela me deu
           G#             F#m      B
sem me avisar que iria ficar pra trás

Riff 2:
        E|---------|
        B|--3/13---|
        G|---------|
        D|---------|
        A|---------|
        E|---------|

            E
E agora eu pago os meus pecados
     F#m            G#m                A
Por ter acreditado que só se vive uma vez

        E|---------|
        B|---13/3--|
        G|---------|
        D|---------|
        A|---------|
        E|---------|

   E
Eu pago os meus pecados
     F#m            G#m               A
Por ter acreditado que só se vive uma vez
           C#m
Pensei que era liberdade
 B               A               F#m    B
Mas, na verdade, eram as grades da prisão

Riff 3 - 2x:
E|--14-------14-------14-------12-------12-------12-----|
B|-----14-------14-------14-------14-------14-------14--|
G|--------11-------11----------------11-------11--------|
D|------------------------------------------------------|
A|------------------------------------------------------|
E|------------------------------------------------------|

E|--12-------14-------12-------14-------12-------14-----|
B|-----14-14----14-14----14-------14-14----14-14----14--|
G|------------------------------------------------------|
D|------------------------------------------------------|
A|------------------------------------------------------|
E|------------------------------------------------------|

 F#m B
Da prisão

(riff 1 - 3x)
E|--12--12---14--14-----12-14-12--16---16---------------|
B|----14--14---16--16---------------17---17-------------|
G|------------------------------------------------------|
D|------------------------------------------------------|
A|------------------------------------------------------|
E|------------------------------------------------------|

E|--12--12---14--14-----12-12-12------------------------|
B|----14--14---16--16-----------------------------------|
G|------------------------------------------------------|
D|------------------------------------------------------|
A|------------------------------------------------------|
E|------------------------------------------------------|

    A           B            C#m
O preço que se paga às vezes é alto demais
  A        B         C#m
É alta madrugada, já é tarde demais
     A          B               C#m
Mais uma luz se apaga no prédio em frente ao meu
    A       B         C#m
É a última janela iluminada
             G#
Nada de anormal...
            F#m    B
Amanhã ela vai voltar

Riff 2:
        E|---------|
        B|--3/13---|
        G|---------|
        D|---------|
        A|---------|
        E|---------|

                   E
Enquanto isso, eu pago os meus pecados
     F#m            G#m                A
Por ter acreditado que só se vive uma vez

        E|---------|
        B|---13/3--|
        G|---------|
        D|---------|
        A|---------|
        E|---------|

    E
Eu pago os meus pecados
     F#m            G#m                A
Por ter acreditado que só se vive uma vez
           C#m
Pensei que era liberdade
 B                A             F#m   B
Mas, na verdade, me enganei outra vez

Riff 3 - 2x:

E|--14-------14-------14-------12-------12-------12-----|
B|-----14-------14-------14-------14-------14-------14--|
G|--------11-------11----------------11-------11--------|
D|------------------------------------------------------|
A|------------------------------------------------------|
E|------------------------------------------------------|

E|--12-------14-------12-------14-------12-------14-----|
B|-----14-14----14-14----14-------14-14----14-14----14--|
G|------------------------------------------------------|
D|------------------------------------------------------|
A|------------------------------------------------------|
E|------------------------------------------------------|

 F#m B
Outra vez...

Riff 2:
        E|---------|
        B|--3/13---|
        G|---------|
        D|---------|
        A|---------|
        E|---------|

    E
E agora eu pago os meus pecados
     F#m            G#m                A
Por ter acreditado que só se vive uma vez

        E|---------|
        B|---13/3--|
        G|---------|
        D|---------|
        A|---------|
        E|---------|

    E
Eu pago os meus pecados
     F#m           G#m                 A
Por ter acreditado que só se vive uma vez

Riff 2:

        E|---------|
        B|--3/13---|
        G|---------|
        D|---------|
        A|---------|
        E|---------|

    E
Eu pago os meus pecados
     F#m           G#m                 A
Por ter acreditado que só se vive uma vez
           C#m
Pensei que era liberdade
 B           A           E    F#m  G#m  A
Mas na verdade era só solidão...

Riff 2:

        E|---------|
        B|--3/13---|
        G|---------|
        D|---------|
        A|---------|
        E|---------|
        E|---------|
        B|--13/3---|
        G|---------|
        D|---------|
        A|---------|
        E|---------|

     E F#m G#m A  (E)
Solidão...

Final:
        E|---------|
        B|--3/13---|
        G|---------|
        D|---------|
        A|---------|
        E|---------|

0 comentarios

    mostrar más comentarios

    ¿Conseguiste tocar?

    88tocaron0aún no

    ¡Graba un vídeo tocando O Preço y envianoslo!

    00:00 / 00:00
    outros vídeos desta música
    repetirqualidadeautomática
    Outro vídeos desta música
      00:00 / 00:00
      automática
      OK