Cifra Club

O Preço

Engenheiros do Hawaii

Cifrado: Principal (guitarra y guitarra eléctrica)
tono: E
[Intro] A9  B  C#m
        A9  B  C#m

E|-12-------12-----14-------14--------------|
B|----14-------14-----16-------16-----------|
G|-------14--------------16-----------------|
D|------------------------------------------|
A|------------------------------------------|
E|------------------------------------------|

E|-12-------14-------12-------12------12----|
B|----14-------14-------14-------14---------|
G|-------13-------13-------13-------13------|
D|------------------------------------------|
A|------------------------------------------|
E|------------------------------------------|

E|----9-----10--11------------12----14---12-|
B|------10---------12------------14---14----|
G|-8/9-----9--11------11-11h13-----13---13--|
D|------------------------------------------|
A|------------------------------------------|
E|------------------------------------------|

[Primeira Parte]

    A           B            
O preço que se paga 
           C#m
Às vezes é alto demais
  A          B     
É alta madrugada
      C#m
Já é tarde demais
              G#
Pra pedir perdão
                F#m     B
Pra fingir que não foi mal

[Segunda Parte]

A            B        
Uma luz se apaga 
                C#m
Num prédio em frente ao meu
 A                 
Sempre em frente 
    B          
Foi o conselho 
    C#m
Que ela me deu
           G#         
Sem me avisar 
            F#m      B
Que iria ficar pra trás

[Refrão]

            E
E agora eu pago os meus pecados
     F#m            
Por ter acreditado 
G#m                     A
    Que só se vive uma vez

    E
Eu pago meus pecados
     F#m            
Por ter acreditado 
G#m                     A
    Que só se vive uma vez
           C#m
Pensei que era liberdade
 B              
Mas, na verdade
A                     F#m  B
Eram as grades da prisão

[Solo] F#m  B  F#m  B

E|-14-------14-------14-----12------14------|
B|----14-------14-------14-----14------14---|
G|-------11-------11-------11-----11-----11-|
D|------------------------------------------|
A|------------------------------------------|
E|------------------------------------------|

E|-11------11------11------11------11-------|
B|----14------14------14------14------14----|
G|-------11------11------11------11------11-|
D|------------------------------------------|
A|------------------------------------------|
E|------------------------------------------|

E|-14-------14-------14-----12------14------|
B|----14-------14-------14-----14------14---|
G|-------11-------11-------11-----11-----11-|
D|------------------------------------------|
A|------------------------------------------|
E|------------------------------------------|

E|-11------11------11------11------11-------|
B|----14------14------14------14------14----|
G|-------11------11------11------11------11-|
D|------------------------------------------|
A|------------------------------------------|
E|------------------------------------------|

[Terceira Parte]

    A           B            
O preço que se paga 
           C#m
Às vezes é alto demais
  A          B     
É alta madrugada
      C#m
Já é tarde demais
     A            B        
Mais uma luz se apaga 
                C#m
Num prédio em frente ao meu                
    A         B         C#m
É a última janela iluminada
             G#
Nada de anormal
            F#m    B
Amanhã ela vai voltar

[Refrão]

           
Enquanto isso 
    E
Eu pago os meus pecados
     F#m            
Por ter acreditado 
G#m                     A
    Que só se vive uma vez

    E
Eu pago meus pecados
     F#m            
Por ter acreditado 
G#m                     A
    Que só se vive uma vez
           C#m
Pensei que era liberdade
 B              
Mas, na verdade
A                   F#m  B
  Me enganei outra vez

[Solo] F#m  B  F#m  B

[Refrão]

            E
E agora eu pago os meus pecados
     F#m            
Por ter acreditado 
G#m                     A
    Que só se vive uma vez

    E
Eu pago meus pecados
     F#m            
Por ter acreditado 
G#m                     A
    Que só se vive uma vez
    E
Eu pago meus pecados
     F#m            
Por ter acreditado 
G#m                     A
    Que só se vive uma vez
           C#m
Pensei que era liberdade
 B              
Mas, na verdade
A               
Era só, solidão

( E  F#m  G#m A )

Solidão

[Final] E  F#m  G#m A7M
Composición de Humberto Gessinger
2.968 vistas
    • ½ Tono
    • A
    • Bb
    • B
    • C
    • Db
    • D
    • Eb
    • E
    • F
    • F#
    • G
    • Ab
  • Agregar a la lista

    0 comentarios

    Ver todos los comentarios
    00:00 / 00:00
    Outros vídeos desta música
    Repetir Calidad Automático
    Outros vídeos desta música
    00:00 / 00:00
    Automático
    OK