Cifra Club

Parabólica

Engenheiros do Hawaii

Cifrado: Principal (guitarra y guitarra eléctrica)
Já pensou em usar uma coleção de roupas do Cifra Club? Responda as perguntas abaixo e nos ajude nessa missão! →
tono: G
[Intro] G  D  G  D  G  D

E|--5-s-7-s-5--3--5----------------------------------------------|
B|--0~--0~--0--3--3--3--3~~--------------------------------------|
G|--0~--0~--0--0--2--2--2~~--------------------------------------| (3x)
D|-------------------0--0~~--------------------------------------|
A|---------------------------------------------------------------|
E|---------------------------------------------------------------|

[Primeira Parte]

G
Ela pára
   D/F#     Em   Bm
E fica ali parada
      C       Am
Olha-se para nada
      D
(Paraná)
 G        D/F#     Em    Bm
Fica parecida paraguaia
      F7     C        Am
Pára-raios em dia de sol
      D
Para mim

[Refrão]

  G     D/F#      Em  Bm
Prenda minha parabólica
  C    G         Am    D
Princesinha parabólica
F#m4              C
O pecado mora ao lado
A    G  D    C          G  D  Em  Bm
Do paraíso...   paira no ar 

( C  Am   D   Bm )

C       Am      G  D   C  (Am  D)
Pecados no paraíso

     Em          Bm
Se a tv estiver fora do ar
         Em
Quando passarem
               Bm
Os melhores momentos da sua vida
Am   Am7M     Am7    Am7M
Pela janela alguém estará
Am7            D        Em
De olho em você  paranóica

[Refrão]

  Bm              Em
Prenda minha parabólica
  Bm          Am  Am7M  Am7  Am7M
Princesinha clarabólica

 Am                Bm
Paralelas que se cruzam
C     D        G
Em belém do pará
               D/F#       Em   Bm
Longe, longe, longe aqui do lado
     C     Am         D
Paradoxo: nada nos separa
    G      D      Em   Bm
Eu paro e fico aqui parado
      F7      C
Olho-me para longe
      Am           D       G
A distância não separabólica

E|-------------------5--5--------------------5--5--------------------5----5----|
B|--10/1210--8-10---7--7----10/1210--8-10--7--7----10/1210--8-10--7----7------|
G|-------------------7--7--------------------7--7--------------------7----7----|
D|-------------------7--7--------------------7--7--------------------7----7----|
A|-------------------5--5--------------------5--5--------------------5----5----|
E|-----------------------------------------------------------------------------|

E|---------2>5-3-----|--0------------------------------------------------------|
B|-0>1-3-3-------0-3-|----3-1-3-----0>1-0---3----------------------------------|
G|-0---------------4-|------------0-------2------------------------------------|
D|-------------------|----------0----------------------------------------------|
A|-----------------2-|--3-----2-------0----------------------------------------|
E|-3-----2-----0-----|--------------------2------------------------------------|
   G     D     E   B    C     B       A   D
  Ela para e fica ali parada

E|---------2>5-3-----|--1-0----------------------------------------------------|
B|-0>1-3-3-------0-3-|--1-1-----0>1-0---3--------------------------------------|
G|-----------------4-|--------0-------2----------------------------------------|
D|-------------------|--3---2--------------------------------------------------|
A|-----------------2-|----3-------0--------------------------------------------|
E|-3-----2-----0-----|----------------2----------------------------------------|
   G     D     E   B    F  C       A   D
  Fica parecida paraguaia

E|-----------0----------------------------------------------------------------|
B|-0-3-------1-3-----0>1-0---3------------------------------------------------|
G|-0-2-0-4---------0-------2--------------------------------------------------|
D|---------------0------------------------------------------------------------|
A|-------2-|-3-2-------0------------------------------------------------------|
E|-3-2-0---|---------------2--------------------------------------------------|

    G   D  E  B     C   B   A   D
  Prenda minha parabolica

E|-----------------0---2>3-3-----1-0-0-|-------------------------------------|
B|-0>1-0-0-----0-1---3-------3---1-0-1-|-1-1-1-0-3---------------------------|
G|-0-----0---0-----------------0-------|-2-2-2-2-2---------------------------|
D|---------0---------0-----------3-----|-------------------------------------|
A|-2-----2-------3-------------------3-|-0-----------------------------------|
E|-------------------------3-----------|---------2---------------------------|

  B             C   D   G   F  C  A  D
  O pecado mora ao lado

E|---0---2---0---2---0---0---0-3-2-0-0---------------------------------------|
B|-0-0-3-3-0-0-3-3-1-1-0-0-1-1-1-3-----3-3-1-1-0-----------------------------|
G|-0---4---0---4---2---0---2-------------------------------------------------|
D|-------------------------------0-------------------------------------------|
A|-----2-------2---0-------0-------------------------------------------------|
E|-0-------0-----------3-----------------------------------------------------|

   E   B  E    B   A  G  A  D
  Se a tv estiver

E|---0---2---0---2-----0-----0-----0-----0-|---------0-0-2-2>3----------------|
B|-0-0-3-3-0-0-3-3---1-----0-----1-----0---|-1-1-3-3-1-1-3-3------------------|
G|-0---4---0---4---2-----0-----2-----0-----|-2-2-4-4--------------------------|
D|-----------------------------------------|-------------0--------------------|
A|-----2-------2---0-----------0-----------|-0---2---3------------------------|
E|-0-------0-------------3-----------3-----|----------------------------------|

    E   B    E    B     A
  Prenda minha parabolica

E|---------2>5-3-----|--0-----------------------------------------------------|
B|-0>1-3-3-------0-3-|----3-1-3-----0>1-0---3---------------------------------|
G|-0---------------4-|------------0-------2-----------------------------------|
D|-------------------|----------0---------------------------------------------|
A|-----------------2-|--3-----2-------0---------------------------------------|
E|-3-----2-----0-----|--------------------2-----------------------------------|

   G      D    E   B      C     B    A   D
  Longe, longe, longe (aqui do lado)

E|---------2>5-3-----|--1-0---0-----------------------3-----------------------|
B|-0>1-3-3-------0-3-|--1---3-1-----1-1-0-0-----------3-----------------------|
G|-----------------4-|------------0---------2-2-0-0---0-----------------------|
D|-------------------|--3-------2-------------------4-0-----------------------|
A|-----------------2-|--------3-------0---------------2-----------------------|
E|-3-----2-----0-----|------------------------2-------3-----------------------|

   G     D     E   B     F    C  A  D  G
  Eu paro e fico aqui parado
Composición de Augusto Licks / Humberto Gessinger
1.778 vistas
    • ½ Tono
    • A
    • Bb
    • B
    • C
    • Db
    • D
    • Eb
    • E
    • F
    • F#
    • G
    • Ab
  • Agregar a la lista

    0 comentarios

    Ver todos los comentarios
    00:00 / 00:00
    Outros vídeos desta música
    Repetir Calidad Automático
    Outros vídeos desta música
    00:00 / 00:00
    Automático
    OK