Cifra Club

Piano Bar

Engenheiros do Hawaii

Tab de bajo: Principal
( Versão Ao vivo 10.000 destinos )


O baixo entra logo depois que ele canta:... nada é uma palavra esperando tradução.
G--------------------------------------------------------------------------------|
D--------------------------------------------------------------------------------|
A------4--4-7-6-4-------------------------------4-----4--------------------------|
E-----------------7-2----2-4-4---------------------4-----------------------------|

G--------------------------------------------------------------------------------|
D--------------------------------------------------------------------------------|
A------4--4-7-6-4----------------------------------------------------------------|
E-----------------7-2---0-2-0-4-4------------------------------------------------|

Toda vez que falta luz, toda vez que algo nos falta

G---------------------------------------------------------------6-6h7-9-7-6------|
D--------------------------------------------------------------------------------|
A---------2-2----2----------------2---2/4--4h5h7-7----5h7------------------------|
E--0--0-2------2---4---2-4-4----4---4---------------------5----------------------|

O invisível nos salta aos olhos, é, um salto no escuro da piscina
G--------------------------------------------------------------------------------|
D--------------------------------------------------------------------------------|
A----------4-4----4--------2/16--------------------------------------------------|
E---4----4----------2----2-------0-----------------------------------------------|

O fogo ilumina muito, por muito pouco tempo, em muito pouco o tempo o fogo apaga e tudo um dia vira luz

G--------------------------------------------------------------------------------|
D--------------------------------------------------------------------------------|
A---------2-2----2----------------2---2/4--4h5h7-7----5h7------------------------|
E--0--0-2------2---4---2-4-4----4---4---------------------5----5-5---------------|

E toda vez que falta luz o invisível nos salta aos olhos

G---------------------------------6(slap)----------------------------------------|
D--------------------------------------------------------------------------------|
A----------4-4----4--------2-3-4-------------------------------------------------|
E---4----4----------2----2-------------------------------------------------------|

Ontem a noite, eu conheci uma guria, já era tarde, era quase dia...

G--------------------------------------------------------------------------------|
D--------------------------------------------------------------------------------|
A----------------------------2-4-----------2---4-4----------4h2------------------|
E------2-—--0-2-4-4----------------------4---4------------4-----2----------------|

G--------------------------------------------------------------------------------|
D-----------------------------2--------------------------------------------------|
A-------------------------------4---------2---4-4----------4h2-------------------|
E------2-—--0-2-4-4-------2-4-----------4---4------------4-----2-----------------|

Era o meu corpo que caía
G--------------------------------------------------------------------------------|
D--------------------------------------------------------------------------------|
A---------------------------4---4------------------------------------------------|
E------2----0-2-4-4-------0---4--------------------------------------------------|

Ontem a noite, a noite tava fria...

G--------------------------------------------------------------------------------|
D---------------------------------------2----------------------------------------|
A----------------------------4--2-4-4-2---4-----2-4-4-2--------------------------|
E------2----0-2-0-4-4------4----------------------------4-0-2--------------------|

... parecia que era minha aquela solidão
G--------------------------------------------------------------------------------|
D--------------------------------------------------------------------------------|
A----------------------4--4-7-6-4------------------------4-----4-----------------|
E------2----0-2-0-4-4-------------7-2----2-4-4--------------4--------------------|

G--------------------------------------------------------------------------------|
D--------------------------------------------------------------------------------|
A------4--4-7-6-4----------------------------------------------------------------|
E-----------------7-2---0-2-0-4-4------------------------------------------------|

(solo)
G--------------------------------------------------------------------------------|
D--------------------------------------------------------------------------------|
A----444444-333333-222222-111111-----444444-333333-222222-111111-----------------|
E--------------------------------------------------------------------------------|

Eu conheci uma guria......parecia que era minha aquela solidão

---------------------------------------------------------------------------------|
D---------------------------------------2----------------------------------------|
A----------------------------4--2-4-4-2---4-----2-4-4-2--------------------------|
E------2----0-2-0-4-4------4----------------------------4-0-2--------------------|

... parecia que era minha aquela solidão
G--------------------------------------------------------------------------------|
D--------------------------------------------------------------------------------|
A---------------2----------------------------------------------------------------|
E------2----2-4---0--------------------------------------------------------------|
Composição de Humberto Gessinger
Colaboración y revision:
  • Marcel Oliveira
  • Renato Maria
65 reproducciones

0 comentarios

Ver todos os comentários
00:00 / 00:00
outros vídeos desta música
repetir qualidade Automático
Outros vídeos desta música
00:00 / 00:00
Automático
OK