Cifra Club

Pose

Engenheiros do Hawaii

Cifrado: Principal (guitarra y guitarra eléctrica)
Já pensou em usar uma coleção de roupas do Cifra Club? Responda as perguntas abaixo e nos ajude nessa missão! →
tono: F#
[Intro] F#  E  B  F# 
        E  B  A  E
        F#  E  B  F# 
        E  B  A  E

E|------6---6---4-----4---2-----2---2------2-|
B|--------7-------5---------4---------4------|
G|-5/6--------------4---------4---------4----|
D|-------------------------------------------|
A|-------------------------------------------|
E|-------------------------------------------|

E|-6-----6---4-----4---2-----2----0---0------|
B|---7---------5---------4--------2---0------|
G|-----6---------4---------4------2---1------|
D|--------------------------------2---2------|
A|--------------------------------0---2------|
E|------------------------------------0------|

E|------6---6---4-----4---2-----2---2------2-|
B|--------7-------5---------4---------4------|
G|-5/6--------------4---------4---------4----|
D|-------------------------------------------|
A|-------------------------------------------|
E|-------------------------------------------|

E|-6-----6---4-----4---2-----2----0---0------|
B|---7---------5---------4--------2---0------|
G|-----6---------4---------4------2---1------|
D|--------------------------------2---2------|
A|--------------------------------0---2------|
E|------------------------------------0------|

[1ª Parte]

 F#        E      
Vamos passear 
   B
Depois do tiroteio
 F#       E         
Vamos dançar 
         B
Num cemitério de automóveis
    F#      E           
Colher as flores 
        B
Que nascerem no asfalto
 C#                 
Vamos todo mundo
 B                     
Tudo que se possa imaginar

( F#  E  B )
( F#  E  B  A  E )

[2ª Parte]

 F#        E     
Vamos duvidar 
          B
De tudo que é certo
 F#        E         
Vamos namorar 
          B
À luz do pólo petroquímico
    F#      E     
Voltar pra casa 
       B
Num navio fantasma
 C#              B      
Vamos todo mundo
 B               
Ninguém pode faltar

( F#  E  B )
( F#  E  B  A  E )

[3ª Parte]

 F#    E     B
Se faltar calor

A gente esquenta
 F#   E      B
Se ficar pequeno

A gente aumenta
   F#            E     
E se não for possível
B
A gente tenta

[Refrão]

 C#               
Vamos velejar 
           B
No mar de lama
 D#m                   
Se faltar o vento
           C#
A gente inventa
                         B
Vamos remar contra a corrente
       D#m                C#
Desafinar do coro dos contentes

( F#  E  B )
( F#  E  B )
( F#  E  B )
( F#  E  B )

[Refrão]

 C#               
Vamos velejar 
           B
No mar de lama
 D#m                   
Se faltar o vento
           C#
A gente inventa
                         B
Vamos remar contra a corrente
       D#m                C#
Desafinar do coro dos contentes

[Final] F#  E  B 
        F#  E  B 
        F#  E  B 
        F#  E  B 
        A   E  F#
Composición de Humberto Gessinger
Colaboración y revisión:
  • Gustavo Vaz
  • Codinome
  • Jonas Bianchin
2.142 vistas
  • Simplificar cifrado
    • ½ Tono
    • A
    • Bb
    • B
    • C
    • Db
    • D
    • Eb
    • E
    • F
    • F#
    • G
    • Ab
  • Agregar a la lista

    0 comentarios

    Ver todos los comentarios
    00:00 / 00:00
    Outros vídeos desta música
    Repetir Calidad Automático
    Outros vídeos desta música
    00:00 / 00:00
    Automático
    OK