Cifra Club

Aprenda

Sob o Tapete

Engenheiros do Hawaii

Tablatura: Principal (guitarra)
tono: E
Intro: E G F# E E D

E|-----------------------|
B|-----------------------|
G|-----------------------|
D|----12-11--9--9-9-9--7-|
A|----10-9---7--7-7-7--5-|
E|-0---------------------|
   E  G  F#  E         D

 E G  F#           E
  Quando menos se espera
  O que seria já era
 E G  F#           E D
  ?o que seria de nós

Segunda parte:

E|----------------------------------|
B|----------------------------------|
G|----------------------------------|
D|-/5~-/9\7~--/11/13/14~--(/13~)-2--|
A|-------------------------------2--|
E|-------------------------------0--|
   G      A       C     B      E
 G                A
  Se não fosse a ilusão
 C                B   E
  Que nos trouxe até aqui?
 E  G    F#       E
  Quanto mais se foge
  Tanto mais se quer fugir
  E  G    F#      E E D
  ?O que seria de nós
  G              A
  Se não fosse a ilusão
    C        B           A
  A doce ilusão de conseguir?

     E
  Há mais de uma semana
  Eu não sei que horas são
   
  Havia um romance
  Ao alcance da mão

           A
  Mas o cigarro apagou
    C#m
  Enquanto eu decidia
       C
  Se o vício valia
           B
  Se eu seria capaz
        B              E
  Ou seria difícil demais

 E  G    F#       E
 Quando menos se espera
 O que seria já era
E  G    F#       E D
 ?O que seria de nós
 G              A
  Se não fosse a mão
  C                B   E
  Que nos trouxe até aqui?

 E  G    F#       E
  Quanto mais se foge
  Tanto mais se quer fugir
 E  G    F#      E  D
  E só se pensa em fugir
  G                A
  Da mão que nos trouxe
  C                B      E
  A doce ilusão de conseguir

 E
  Há mais de um motivo
  Há mais de uma razão
     
  Havia um romance
  Ao alcance da mão
           A
  Mas o cigarro apagou
         C#m
  E me ensinou o macete
       C
  De esconder as cinzas
         B
  Sob o tapete

Solo:

E|--------------------------------------------------|
B|--12-----14--11-----13--10-----9------8------7----|
G|--14b----16b-13b----15b-12b----11b----10b----9b---|
D|--------------------------------------------------|
A|--------------------------------------------------|
E|--------------------------------------------------|
   E                    A     C#m    C       B
Composição de Augusto Licks / Humberto Gessinger
Colaboración y revision:
  • Gabriel Prada
  • gustavo almeida
  • Allison Cardoso
64 reproducciones
    • ½ Tono
    • A
    • Bb
    • B
    • C
    • Db
    • D
    • Eb
    • E
    • F
    • F#
    • G
    • Ab
  • Adicionar à lista

    0 comentarios

    Ver todos os comentários
    00:00 / 00:00
    outros vídeos desta música
    repetir qualidade Automático
    Outros vídeos desta música
    00:00 / 00:00
    Automático
    OK