Cifra Club

Love Is The Answer Acoustic

England Dan

Cifrado: Principal (guitarra y guitarra eléctrica)
tono: A

Chords by: Louie A. Ebojo
From: *


Tuning: EADGBe
Chords:
F#m     244222
F#m7    242222
FM7     1x3210 use thumb on E (6th) string, however, this optional.
F       xx3211
DM7     xx0222
D       xx0232
D6      xx0202
D9/B    x20230
E       022100
C       x32010
Csus4   x32011
C#m7    x46454
C9sus   x4444x
G       3x0033
A       x02220
A5      5xxx55
B       x24440
Bm7     x24232


Legend: * - indicate an abrupt change in chord.
        \ - slide up


Intro:  F#m-DM7-Bm7-
        FM7-F,FM7,A-B*B--
        A*B,C-Csus4,C,
        D-E,D6,G-A5*A5 pause


     F#m                  DM7                  Bm7
e||---9-----------7---5----5------------4---2---2----------------------|
B||---------7--------------7------7-------------3-----3-----5--3-------|
G||------6-----6-----------6---6-----6----------2--2-----2-------------|
D||------------------------7--------------------4----------------------|
A||---9--------------------5--------------------2----------------------|
E||--------------------------------------------------------------------|


     FM7 F FM7  A   B   B                           A   B  C Csus4  C
e||---0--1--0------------------0--------0--------|---------0--1-----0--|
B||---1--1--1---2---4---4---------4--------4-----|--2---4--1--1-----1--|
G||---2--2--2---2---4---4---4--------4--------4--|--2---4--0-----------|
D||---3--3--3---2---4---4------------------------|--2---4--2-----------|
A||-------------0-\-2-*-2------------------------|--0-*-2--3--3-----3--|
E||----------------------------------------------|---------------------|


      D  E  D6  G     A           pause
e||---2--0--2---3-----5---5--------9---|
B||---3--0--0---3-----5---5---5\10-----|
G||---2--1--2--------------------------|
D||---0--2--0--------------------------|
A||------2-----------------------------|
E||------0------3--\--5-*-5------------|


F#m7        C#m7
Name your price,
            F#m7 C#m7
A ticket to paradise
         Bm7         DM7
I can`t stay here anymore
                 F#m7     C#m7
And I`ve looked high and low
                F#m7              C#m7
I`ve been from shore to shore to shore
               Bm7                 DM7
If there`s a short cut I`d have found it
              Bm7      C#9sus  C#9sus,C#9sus hold
But, there is no easy way around it


Chorus:

              F#m   DM7      C#m7
Light of the world, shine on me,
F#m          Bm7
Love is the answer;
            F#m7  DM7     C#m7
Shine on us all,  set us free,
F#m          Bm7
Love is the answer.

F#m7       C#m7
Who knows why,
        F#m7        C#m7
Someday we all must die.
            Bm7              DM7
We`re all homeless boys and girls,
            F#m7   C#m7
And we are never heard,
             F#m7                   C#m7
It`s such a lonely, lonely, lonely world.
        Bm7                         DM7
People turn their heads and walk on by,
                Bm7                C#9sus, C#9sus hold
Tell me, is it worth just another try?


        (Repeat Chorus)


Bridge:

         F#m7    DM7
Tell me, are we alive,
           Bm7
Or just a dying planet?
FM7   F  FM7  A  B*B
What are the chances?
 A   B   C  Csus4   C    D    E   D6  G   A5*A5 hold
Ask the man  in   your heart for the answers.


             C#m7   F#m7
And when you feel afraid,
  G         D
(Love one another)

             C#m7     F#m7
When you`ve lost your way,
  G         D
(Love one another)

          C#m7       F#m7
And when you`re all alone,
  G         D
(Love one another)

                C#m7      F#m7
And when you`re far from home,
  G         D
(Love one another)

                C#m7      F#m7
And when you`re down and out,
  G         D
(Love one another)

               C#m7     F#m7
And when your hopes run out,
  G         D
(Love one another)

              C#m7    F#m7
And when you need a friend,
  G         D
(Love one another)

                C#m7     F#m7
And when you`re near the end
 G
Love, we`ve got to love
               G             Bm7 hold
We`ve got to love one another...


        (Repeat Chorus 2x)

D9/B         Bm7   D9/B-F#m7 pause
Love is the answer.
00:00 / 00:00
Otros videos de esta canción
Repetir
Otros videos de esta canción
Compositor no encontrado.
45 vistas
    • ½ Tono
    • A
    • Bb
    • B
    • C
    • Db
    • D
    • Eb
    • E
    • F
    • F#
    • G
    • Ab
  • Agregar a la lista

    0 comentarios

    Ver todos los comentarios

    ¿Lograste tocar?

    0 Tocaron 0 Aún no

    ¡Graba un video tocando Love Is The Answer Acoustic y envíanoslo!

    00:00 / 00:00
    OK