Cifra Club

Go Big Or Go Home

ENHYPEN

Cifrado: Principal (guitarra y guitarra eléctrica)
Selo Cifra Club: esta cifra foi revisada para atender aos critérios oficiais da nossa Equipe de Qualidade.
tono: Ebm
E|----------------------------------------|
B|--9\11-11-14-11-9-----------------------|
G|------------------10-10-13-10-8---------|
D|---------------------------------13-13--|
A|----------------------------------------|
E|----------------------------------------|
   
E|----------------------------------------|
B|----------------------------------------|
G|------------6-8-------------------------|
D|15-13-11-8------------------------------|
A|----------------------------------------|
E|----------------------------------------|

E|----------------------------------------|
B|---9\11-11-14-11-9----------------------|
G|7-----------------10-10-13-10-8---------|
D|---------------------------------13-13--|
A|----------------------------------------|
E|----------------------------------------|

E|----------------------------------------|
B|----------------------------------------|
G|------------6-8-------------------------|
D|15-13-11-8------------------------------|
A|----------------------------------------|
E|----------------------------------------|


E|----------------------------------------|
B|----------------------------------------|
G|--------10-8-10-8-10-8-6\8------10-8-10-|
D|9\11-8--------------------11-8----------|
A|----------------------------------------|
E|----------------------------------------|

E|----------------------------------------|
B|----------------------------------------|
G|8-10-8-6\8----6\8-----------------------|
D|-----------11-----11-----8-13-13-11-8---|
A|----------------------------------------|
E|----------------------------------------|
Otros videos de esta canción
    26 exhibiciones
      • ½ Tono
      • Am
      • Bbm
      • Bm
      • Cm
      • C#m
      • Dm
      • Ebm
      • Em
      • Fm
      • F#m
      • Gm
      • G#m
    • Agregar a la lista

    Afinação da cifra

    Afinador online

      Ops (: Contenido disponible solo en portugués.
      OK