Cifra Club

Alicia

Enrique Bunbury

Tablatura: Principal (guitarra)
Tom: G
C
Alicia Sortilegio de babia
        G
en el fondo del espejo
   Em
Alicia ni supone ni piensa
    Am
con la luna por cerebro

  C
Alicia en su pensamiento
            G
tirando del hilo de su enredo
  Em
Alicia en el laberinto
         Am
y un minotauro me llama teseo

  F
Alicia es siempre tan breve
               Am
que ya ha terminado
  F
Alicia dice que te quiere
                  Am
cuando ya te ha abandonado.



(la guitarra electrica hace los acordes en 5tas)
  D
Alicia expulsada
          F#m
pais de las maravillas
             Bm
Para Alicia hoy
               E
es siempre todavia

SOLO [ C  G  Em  Am ]  X 2


  C                   G                      Em                Am
E|----------------------------------------------------------------------|
B|----------------------------------------------------------------------|
G|------9--------9----9/12---------------9----9/10-9--------------------|
D|-7/10-----7/10---10------10/12~----7/10---10----------7/10-10-9~------|
A|----------------------------------------------------------------------|
E|----------------------------------------------------------------------|

  C                   G                      Em                Am

E|----------------------------------------------------------------------|
B|----------------------------------------------------------------------|
G|------9--------9----9/12---------------9----9/10-9--------------------|
D|-7/10-----7/10---10------10/12~----7/10---10----------7/10-10-9-10b12-|
A|----------------------------------------------------------------------|
E|----------------------------------------------------------------------|

C
Alicia viajando entre lunas
     G
de charla con musarañas
  Em
Alicia tejiendo las nubes
     Am
con tela que nunca se acaba

  F
Alicia es siempre tan breve
               Am
que ya ha terminado
  F
Alicia dice que te quiere
                  Am
cuando ya te ha abandonado.


  D
Alicia expulsada
          F#m
pais de las maravillas
             Bm
Para Alicia hoy
               E    E5
es siempre todavia

  D
Alicia expulsada
          F#m
pais de las maravillas

  D
Alicia expulsada
          F#m         D      F#m
pais de las maravillaaaas  aaahh
 Bm            Em7/G
aaahhh       aaahh
reproducciones 1.060
Acordes para:
    Composição: Enrique Bunbury Colaboración y revision:
    • birintox

    0 comentarios

    mostrar más comentarios

    ¿Conseguiste tocar?

    2 tocaron 0 aún no

    ¡Graba un vídeo tocando Alicia y envianoslo!

    00:00 / 00:00
    outros vídeos desta música
    repetir qualidade Automático
    Outros vídeos desta música
    00:00 / 00:00
    Automático
    OK