Cifra Club

Boadicea

Enya

Cifrado: Principal (guitarra y guitarra eléctrica)
tono: Bb
Tabbed by: AstroZombie (Antero Sosa)
Email: *

Tuning: standard

Transcribe to guitar

Part 1 *(Notes in parenthesis are optional but i think it sounds better as octave chords
I also think its better if you slide from chord to chord)
e|---------------------------------------------------------------------|
B|---------------------------------------------------------------------|
G|---(5)-(7)-(8)--------(5)-(7)-----------(5)-(7)-(8)-------(5)--(5)---|
D|------------------------------(5)------------------------------------|
A|----3---5---6----------3---5-------------3---5---6---------3----3----|
E|-------------------------------3-------------------------------------|

e|-------------------------------------------------------------------------|
B|-------------------------------------------------------------------------|
G|---(3)--(7)------(8)-------(5)-(7)-----------(5)-(7)-(8)------(5)--(5)---|
D|-----------------------------------(5)-----------------------------------|
A|----1----5--------6---------3---5-------------3---5---6--------3----3----|
E|-------------------------------------3-----------------------------------|

e|----------------------------------------------------------------------|
B|----------------------------------------------------------------------|
G|---(3)--(7)------(3)-(5)-----(5)--(5)------(3)--(7)-------(3)-(5)-----|
D|----------------------------------------------------------------------|
A|----1----5--------1---3-------3----3--------1----5---------1---3------|
E|----------------------------------------------------------------------|

Part 2
e|-------------------------------------|
B|-------------------------------------|
G|---(13)-----(8)-----(12)-------------|
D|-----------------------------(10)----|
A|----11-------6-------10--------------|
E|-------------------------------8-----|

e|-----------------------------|
B|-----------------------------|
G|---(13)-----(8)-----(12)-----|
D|-----------------------------|
A|----11-------6-------10------|
E|-----------------------------|

e|-------------------------------------|
B|-------------------------------------|
G|---(13)-----(8)-----(12)-------------|
D|-----------------------------(10)----|
A|----11-------6-------10--------------|
E|-------------------------------8-----|

e|---------------------------------------|
B|---------------------------------------|
G|---(13)-----(8)-----(7)---------(5)----|
D|---------------------------------------|
A|----11-------6-------5-----------3-----|
E|---------------------------------------|

I didn't tab out the very last part cause its very easy (look back at Part 1)


| /  slide up
| \  slide down
| h  hammer-on
| p  pull-off
| ~  vibrato
| +  harmonic
| x  Mute note
===============================================================================
00:00 / 00:00
Otros videos de esta canción
Repetir
Otros videos de esta canción
Composición de Enya / Roma Ryan
87 vistas
    • ½ Tono
    • A
    • Bb
    • B
    • C
    • Db
    • D
    • Eb
    • E
    • F
    • F#
    • G
    • Ab
  • Agregar a la lista

    0 comentarios

    Ver todos los comentarios

    ¿Lograste tocar?

    0 Tocaron 0 Aún no

    ¡Graba un video tocando Boadicea y envíanoslo!

    00:00 / 00:00
    OK