Cifra Club

Lothlorien

Enya

Cifrado: Principal (guitarra y guitarra eléctrica)
tono: Ab (con acordes en la forma de G) Capotraste en 1ª casa
CAPO NO PRIMEIRO TRASTE

       Am                 Em                 Am                 Em
E|----------------------0-------------------------------------0---------------------
A|---0-------------------3-----------------0-------------------3--------------------
D|----3-------------------3---5-------3-----3-------------------3---5-------3-------
G|-----3-----------3-------0-----0-----------3-----------3-------0-----0------------
B|------2--0--2-------------------------------2--0--2-------------------------------
E|-------------------------------------------------------------------------------0--

       C     D      G                    C        D     Am
E|----------------4-----------4-----------------------------------
A|---4---------------------------------4--------------0----0------
D|----3----0-------0----0--------0------3-------0------3----3-----
G|---------3--3-----0----0----------0-----------3--3----3----3----
B|-----4-----4-------4-------------------4--------4---------------
E|---0--0--43--------------------------0--0-----43----0-----0-----

       C     D      G                    C        D     Em
E|----------------4-----------4-----------------------0------0-------
A|---4---------------------------------4---------------3--------3----
D|----3----0-------0----0---------------3-------0-------3---------3--
G|---------3--3-----0----0----------0-----------3--3-----------------
B|-----4-----4-------4-----------4-------4--------4------------------
E|---0--0--43--------------------------0--0-----43----0--------------

       Am                 Em                 Am                 Em
E|----------------------0-------------------------------------0---------------------
A|---0-------------------3-----------------0-------------------3--------------------
D|----3-------------------3---5-------3-----3-------------------3---5-------3-------
G|-----3-----------3-------0-----0-----------3-----------3-------0-----0------------
B|------2--0--2-------------------------------2--0--2-------------------------------
E|-------------------------------------------------------------------------------0--

       C     D      G                    C        D     Am
E|----------------4-----------4-----------------------------------
A|---4---------------------------------4--------------0----0------
D|----3----0-------0----0--------0------3-------0------3----3-----
G|---------3--3-----0----0----------0-----------3--3----3----3----
B|-----4-----4-------4-------------------4--------4---------------
E|---0--0--43--------------------------0--0-----43----0-----0-----

       C     D      G                    C        D     Em
E|----------------4-----------4-----------------------0--------------
A|---4---------------------------------4---------------3-------------
D|----3----0-------0----0---------------3-------0-------3------------
G|---------3--3-----0----0----------------------3--3-----------------
B|-----4-----4-------4-----------4-------4--------4------------------
E|---0--0--43-----------------------4--0--0-----43----0--------------

       Am                     Em                         Am                     Em
E|--------------------------0-----------0------------------------------------0-----------0---------
A|---0-------------0---------3------------3---3-------0-------------0---------3------------3-------
D|----3--------------3---3----3---5---3-----3----------3--------------3---3----3---5---3--------3--
G|-----3---------3-----3-------0----0-------------------3---------3-----3-------0----0-------------
B|------2--0--2------------------------------------------2--0--2-----------------------------------
E|--------------------------------------------------------------------------------------------0----

       C     D      G                    C        D     Am
E|----------------4-----------4-----------------------------------
A|---4---------------------------------4--------------0----0------
D|----3----0-------0----0--------0------3-------0------3----3-----
G|---------3--3-----0----0----------0-----------3--3----3----3----
B|-----4-----4-------4-------------------4--------4---------------
E|---0--0--43--------------------------0--0-----43----0-----0-----

       C     D      G                    C        D     Am
E|----------------4-----------4-----------------------------------
A|---4---------------------------------4--------------0----0------
D|----3----0-------0----0--------0------3-------0------3----3-----
G|---------3--3-----0----0----------0-----------3--3----3----3----
B|-----4-----4-------4-------------------4--------4---------------
E|---0--0--43--------------------------0--0-----43----0-----0-----

       C     D      G                    C        D     Am
E|----------------4-----------4-----------------------------------
A|---4---------------------------------4--------------0----0------
D|----3----0-------0----0--------0------3-------0------3----3-----
G|---------3--3-----0----0----------0-----------3--3----3----3----
B|-----4-----4-------4-------------------4--------4---------------
E|---0--0--43--------------------------0--0-----43----0-----0-----

       C     D      G                        C        D         Em
E|----------------4---------------4---------------------------0-------------
A|---4-------------------------------------4--------------------------------
D|----3----0-------0--------0---------------3-------0-------------3---------
G|---------3--3-----0--------0----------0-----------3----3------------------
B|-----4-----4-------4-----------------------4---------4--------------------
E|---0--0--43-------------------------4----0--0-----43--------------------0-
Composición de Enya / Roma Ryan
Colaboración y revisión:
  • Fabricio Fonseca
25 vistas
    • ½ Tono
    • A
    • Bb
    • B
    • C
    • Db
    • D
    • Eb
    • E
    • F
    • F#
    • G
    • Ab
  • Agregar a la lista

    0 comentarios

    Ver todos los comentarios

    ¿Lograste tocar?

    0 Tocaron 0 Aún no

    ¡Graba un video tocando Lothlorien y envíanoslo!

    00:00 / 00:00
    Outros vídeos desta música
    Repetir Calidad Automático
    Outros vídeos desta música
    00:00 / 00:00
    Automático
    OK