Cifra Club

Sun In The Stream

Enya

Cifrado: Principal (guitarra y guitarra eléctrica)
tono: D
~~~~~~ = vibrato 
^      = hammer-on or pull-off 
/ or  = slide 
G      = Grace Note 
 
 
                        P H 
E|--------------------------------------10---12~~~~----/7---------------- 
B|---87---10---12-----10^9^10---12-------------------------8---10~~~~~-- 
G|----------------------------------------------------------------------- 
D|----------------------------------------------------------------------- 
A|----------------------------------------------------------------------- 
E|----------------------------------------------------------------------- 
 
 
     H  P 
E|----------------------------------------------------------------------| 
B|---8^10^8---7/8---10---------------7---8---/12---8---10----8---7------| 
G|-----------------------7------/9------------------------------------9-| 
D|----------------------------------------------------------------------| 
A|----------------------------------------------------------------------| 
E|----------------------------------------------------------------------| 
 
 
                        P H 
E|--------------------------------------10---12~~~~----/7---------------- 
B|---87---10---12-----10^9^10---12-------------------------8---10~~~~~-- 
G|----------------------------------------------------------------------- 
D|----------------------------------------------------------------------- 
A|----------------------------------------------------------------------- 
E|----------------------------------------------------------------------- 
 
 
     H  P                                  ? 
E|------------------------------------------------------10----12--------- 
B|---8^10^8----7--10---7-------------7---8----8---10--------------------- 
G|------------------------7-----/9--------------------------------------- 
D|----------------------------------------------------------------------- 
A|----------------------------------------------------------------------- 
E|----------------------------------------------------------------------- 
 
 
 
   1:00          ?                     H  P     G P P 
E|---------------7----------10-----10--8^10^8---------------------------- 
B|---87----8----12----8-------------------------10^8^7------------------ 
G|----------------------------------------------------------------------- 
D|----------------------------------------------------------------------- 
A|----------------------------------------------------------------------- 
E|-----------------------------------------------------------------------
Composición de Enya / Roma Ryan
Colaboración y revisión:
  • Hellektra
58 vistas
    • ½ Tono
    • A
    • Bb
    • B
    • C
    • Db
    • D
    • Eb
    • E
    • F
    • F#
    • G
    • Ab
  • Agregar a la lista

    0 comentarios

    Ver todos los comentarios

    ¿Lograste tocar?

    0 Tocaron 0 Aún no

    ¡Graba un video tocando Sun In The Stream y envíanoslo!

    00:00 / 00:00
    Outros vídeos desta música
    Repetir Calidad Automático
    Outros vídeos desta música
    00:00 / 00:00
    Automático
    OK