Cifra Club

Você É Meu Tudo

Era

Cifrado: Principal (guitarra y guitarra eléctrica)
tono: E
Intro: 
      C#m                                                G#m

E|---------4-------4---------4----------------4-------4---------4-------|
B|-----------5---5-------------5---5------------4---4-------------4---4-|
G|-----6-------6---------6-------6--------4-------4---------4-------4---|   2x
D|---6---6-------------6---6------------6---6-------------6---6---------|
A|-4-----------------4--------------------------------------------------|
E|------------------------------------4-----------------4---------------|
Verso 1:
      C#m                                                G#m

E|---------4-------4---------4----------------4-------4---------4-------|
B|-----------5---5-------------5---5------------4---4-------------4---4-|
G|-----6-------6---------6-------6--------4-------4---------4-------4---|   2x
D|---6---6-------------6---6------------6---6-------------6---6---------|
A|-4-----------------4--------------------------------------------------|
E|------------------------------------4-----------------4---------------|
E se eu soubesse
Como as minhas palavras deveria usar
A história que teríamos
Seria a mais bela que alguém ia contar
      A                                                   B

E|---------0----------------0----------------2-----------------2-----|
B|-----------2---2-------------2---2-----------4----4------------4---|
G|-----2-------2---------2-------2--------4-------4--------4-------4-|
D|---2---2-------------2---2------------4---4------------4---4-------|
A|-0----------------0-----------------2----------------2-------------|
E|-------------------------------------------------------------------|
Mas eu me aproximo
O seu coração tende a se afastar
       C#m                                              G#m

E|---------4-------4---------4----------------4-------4---------4-------|
B|-----------5---5-------------5---5------------4---4-------------4---4-|
G|-----6-------6---------6-------6--------4-------4---------4-------4---|   2x
D|---6---6-------------6---6------------6---6-------------6---6---------|
A|-4-----------------4--------------------------------------------------|
E|------------------------------------4-----------------4---------------|
De cima de uma arvore
Te colhi todas as estelas que haviam no céu
E nunca encontrei uma flor
Que a sua beleza fosse tão fiel
      A                                                  B

E|---------0----------------0----------------2-----------------2-----|
B|-----------2---2-------------2---2-----------4----4------------4---|
G|-----2-------2---------2-------2--------4-------4--------4-------4-|
D|---2---2-------------2---2------------4---4------------4---4-------|
A|-0----------------0-----------------2----------------2-------------|
E|-------------------------------------------------------------------|
E vendo os meus esforços
Você parece nem um pouco se importar
 
Refrão:
     C#m
Pois tudo que eu faço
                                G#m
O seu olhar me diz que isso é absurdo
  C#m
E nunca entendeu
                                G#m
Que se não tenho nada porque você é tudo...
 
Verso 2:
      C#m                                                                      G#m

E|---------4-------4---------4----------------4-------4---------4-------|
B|-----------5---5-------------5---5------------4---4-------------4---4-|
G|-----6-------6---------6-------6--------4-------4---------4-------4---|   2x
D|---6---6-------------6---6------------6---6-------------6---6---------|
A|-4-----------------4--------------------------------------------------|
E|------------------------------------4-----------------4---------------|
Mas se eu soubesse
Como as minhas palavras deveria usar
Todo esse planeta e até mesmo o universo
Ia conquistar
      A                                                                     B

E|---------0----------------0----------------2-----------------2-----|
B|-----------2---2-------------2---2-----------4----4------------4---|
G|-----2-------2---------2-------2--------4-------4--------4-------4-|
D|---2---2-------------2---2------------4---4------------4---4-------|
A|-0----------------0-----------------2----------------2-------------|
E|-------------------------------------------------------------------|
Mas feliz eu não seria
Sabendo que pode me amar
      C#m                                                                      G#m

E|---------4-------4---------4----------------4-------4---------4-------|
B|-----------5---5-------------5---5------------4---4-------------4---4-|
G|-----6-------6---------6-------6--------4-------4---------4-------4---|   2x
D|---6---6-------------6---6------------6---6-------------6---6---------|
A|-4-----------------4--------------------------------------------------|
E|------------------------------------4-----------------4---------------|
Quando olho em um espelho
Vejo o seu reflexo em meu olhar
E isso me atormente
Pois o teu sorri é que me faz sonhar
      A                                                                     B

E|---------0----------------0----------------2-----------------2-----|
B|-----------2---2-------------2---2-----------4----4------------4---|
G|-----2-------2---------2-------2--------4-------4--------4-------4-|
D|---2---2-------------2---2------------4---4------------4---4-------|
A|-0----------------0-----------------2----------------2-------------|
E|-------------------------------------------------------------------|
E você não percebeu
Que o sol que te ilumina sou eu

Refrão:
     C#m
Pois tudo que eu faço
                                G#m
O seu olhar me diz que isso é absurdo
  C#m
E nunca entendeu
                                G#m
Que se não tenho nada porque você é tudo...

Solo: C#m G#m 4x

Refrão:
     C#m
Pois tudo que eu faço
                                G#m
O seu olhar me diz que isso é absurdo
  C#m
E nunca entendeu
                                G#m
Que se não tenho nada porque você é tudo... 2x
    C#m
Pra mim.
00:00 / 00:00
Otros videos de esta canción
Repetir
Otros videos de esta canción
Composición de Elohim Guanacoma
Colaboración y revisión:
  • Elohim Guanacoma
3 vistas
    • ½ Tono
    • A
    • Bb
    • B
    • C
    • Db
    • D
    • Eb
    • E
    • F
    • F#
    • G
    • Ab
  • Agregar a la lista

    0 comentarios

    Ver todos los comentarios

    ¿Lograste tocar?

    0 Tocaron 0 Aún no

    ¡Graba un video tocando Você É Meu Tudo y envíanoslo!

    00:00 / 00:00
    OK