Cifra Club

Bad Love

Eric Clapton

Cifrado: Principal (guitarra y guitarra eléctrica)
tono: C
Intro: (depois do chorus)
E|-------------------------------------------------------------------------|
B|-------------------------------------------------------------------------|
G|--------------5--------------------------------5--7----------------------|
D|---------5/7-----5-------3--5--3---------5/7---------5--3--2---0h2p0-----|
A|---3--5-------------3h5------------3--5----------------------------------|
E|-------------------------------------------------------------------------|

E|-------------------------------------------------------------------|
B|-------------------------------------------------------------------|
G|--------------5--------------------------------5--7----------------|
D|---------5/7-----5-------3--5--3---------5/7---------5--3--2-------|
A|---3--5-------------3h5------------3--5----------------------------|
E|-------------------------------------------------------------------|

E|---------------------------------------------------------------------------|
B|-------------13-------------------------------------13--15-----------------|
G|------12/14------12----------10h12p10-------- 12/14--------12--10--9-7h9p7-|
D|-10-12------------------10h12-------------10-12----------------------------|
A|---------------------------------------------------------------------------|
E|---------------------------------------------------------------------------|

E|---------------------------------------------------------------------2-----|
B|-------------13-------------------------------------13-15------------2-3---|
G|------12/14------12----------10h12p10-------- 12/14-------12-10-9-7--2---4-|
D|-10-12------------------10h12-------------10-12----------------------2---4-|
A|---------------------------------------------------------------------2-----|
E|---------------------------------------------------------------------------|

 Bm                   E                 A
 Oh, what a feeling I get when I'm with you
  Bm                     E              A
  You take my heart into everything you do
         Bb       C           Am     Bb
  And it makes me sad for the lonely people
  Bb            C           Dm
  I walked that road for so long
        Bb        C              Am    Bb
  Now I know that I'm one of the lucky people
   Bb           C         G5
  Your love is making me strong

(esse riff é tocado durante o refão, a segunda vez q tocar o final é mais lento)
E|--------------------------------------------------|
B|---------------6b~---------------8b--6------------|  (2x)
G|-------5b~--5h7---------5b~-7----------7----------|
D|---3h5--------------3h5---------------------------|
A|--------------------------------------------------|
E|--------------------------------------------------|

         Dm    C      G7/4
 C I've had enough bad love
         Dm          C            G7/4
  I need something I can be proud of
         Dm    C       G7/4
I've had enough bad love
  Dm   C        Bb
    No more bad love

(solo)

 Bm                       E                A
    And now I see that my life has been so blue
  Bm                           E              A
    With all the heartaches I had 'till I met you
         Bb      C              Am    Bb
 But I'm glad to say now that's all behind me
 Bb         C          Dm
   With you here by my side
                Bb      C        Am   Bb
 And there's no more memories to remind me
    Bb                C        G5
    Your love will keep me alive

(solo)
Composición de Eric Clapton / Mick Jones
Colaboración y revisión:
  • Lucas Rodrigues
  • Walter Maia
3.095 vistas
    • ½ Tono
    • A
    • Bb
    • B
    • C
    • Db
    • D
    • Eb
    • E
    • F
    • F#
    • G
    • Ab
  • Agregar a la lista

    0 comentarios

    Ver todos los comentarios

    ¿Lograste tocar?

    6 Tocaron 0 Aún no

    ¡Graba un video tocando Bad Love y envíanoslo!

    00:00 / 00:00
    Outros vídeos desta música
    Repetir Calidad Automático
    Outros vídeos desta música
    00:00 / 00:00
    Automático
    OK