Cifra Club

Change The World

Eric Clapton

Tablatura: Principal
reproducciones 6.360
Tono: D
Introdução:

    E         A9/E    D6/E
E|------------------------0--------0-----0--|
B|----------------------------5------5------|
G|---0h1-------2-----4----------------------|
D|--------x-------x---------x----------x----|
A|---2----x----4--x--5------x----------x----|
E|-0------x--0----x----0----x---0------x----|

    D6/E      A9/E    E
E|-------------------------0--------0-----0-|
B|-----------------------------0------0-----|
G|---4---------2-----0h1--------------------|
D|--------x-------x----------x----------x---|
A|---5----x----4--x--2-------x----------x---|
E|-0------x--0----x------0---x---0------x---|

    E         A9/E    D6/E
E|------------------------0--------0-----0--|
B|----------------------------5------5------|
G|---0h1-------2-----4----------------------|
D|--------x-------x---------x----------x----|
A|---2----x----4--x--5------x----------x----|
E|-0------x--0----x----0----x---0------x----|

    D6/E      A9/E    B4(7)
E|-------------------0----------------------|
B|-------------------0----------------------|
G|---4---------2-----2----------------------|
D|--------x-------x--2----------------------|
A|---5----x----4--x--2----------------------|
E|-0------x--0----x-------------------------|

Solo Intro:

E|----------------------------------------------------|
E|----------------------------------------------------|
B|----------7-----------------------------------------|
G|-7/9--7~----7/9~----7/9~-9\7p5--7-5-----------------|
D|------------------------------------7p5---------5---|
E|----------------------------------------7~--5-7---0-|


Primeira Parte:

E             A9/E       D6/E
  If I could reach the stars
D6/E        A9/E     E
  Pull one down for you
E          A9/E   D6/E
  Shine it on my heart
D6/E            A9/E     E
  So you could see the truth
A            D9/A       G6/A
  That this love I have inside
G6/A      D9/A    A
Is everything it seems

E          A9/E  D6/E
  But for now I find
D6/E        A9/E   G#7
  It's only in my dreams


Refrão:
          F#m7   G#7       C#m7
And I can      change the world
D#m7(5-)    G#7             C#m7
I'd be the sunlight in your universe
 D#m7(5-)       G#7
You'd think my love was really
 C#m7   Cm7   Bm7
Some__thing  good
 E    A7    E
Baby, if I could
   G#m7  Gm7    F#m7
Chan_______ge      the world


Solo 2:
E|----------------------------------------------------|
E|----------------------------------------------------|
B|---------7------------------------------------------|
G|-7/9--7~---7/9~-7/9~-9\7p5-7-5----------------------|
D|-------------------------------7p5-7~-5-5-5-5-5-5h7-|
E|----------------------------------------------------|

E       A9/E     D6/E
  If I could be king
D6/E    A9/E  E
  Even for a day
E              A9/E    D6/E
  I'd take you as my queen
D6/E           A9/E     E
  I'd have it no other way
A          D9/A       G6/A
  And our love would rule in this
G6/A       D9/A    A
  Kingdom we have made
E                A9/E  D6/E
  Till then I'd be a  fool
D6/E       A9/E    G#7
  Wishin' for the day


Repete o Refrão:
           F#m7   G#7       C#m7
That I can      change the world
D#m7(5-)    G#7             C#m7
I'd be the sunlight in your universe
 D#m7(5-)       G#7
You'd think my love was really
 C#m7   Cm7   Bm7
Some__thing  good
 E    A7    E
Baby, if I could
   G#m7  Gm7    F#m7      E
Chan_______ge      the world
      A7    E
Baby, if I could
   G#m7  Gm7    F#m7
Chan_______ge      the world

Solo:
E  A9/E  D6/E
D6/E  A9/E  E
E  A9/E  D6/E
D6/E  A9/E  G#7

E|--------10-10-10--10-10-10--------------------------|
B|-10/12--12-12-12--12-12-12---12\10~-10-12~-10h12~---|
G|----------------------------------------------------|
D|----------------------------------------------------|
A|----------------------------------------------------|
E|----------------------------------------------------|

E|----------------------------------------------------|
B|-12\10~--8------------------------------------------|
G|-------------9p7-----7h9-7--------------------------|
D|-----------------9---------9\7p5--------------------|
A|---------------------------------7------------------|
E|----------------------------------------------------|

E|----------------------------------------------------|
B|--------------------8---10b12r10--8~----------------|
G|------------7~--7-9---9--------------9--------------|
D|----5--7/9------------------------------------------|
A|-~7-------------------------------------------------|
E|----------------------------------------------------|

E|-------10--10h12-10h12-10h12-10---------------------|
B|-10/12----------------------------12-11-10-8--------|
G|----------------------------------------------9-----|
D|----------------------------------------------------|
A|----------------------------------------------------|
E|----------------------------------------------------|

E|----------------------------------------------------|
B|-10b12r10--8~---------------------------------------|
G|---------------9-9~---------------------------------|
D|----------------------------------------------------|
A|----------------------------------------------------|
E|----------------------------------------------------|

E|----15b16-12\-------12--11~--14-12~-11----9~--------|
B|-12------------9/14-----13~------------12-----------|
G|----------------------------------------------------|
D|----------------------------------------------------|
A|----------------------------------------------------|
E|----------------------------------------------------|

Refrão Final:

           F#m7   G#7       C#m7
That I can      change the world
D#m7(5-)    G#7             C#m7
I'd be the sunlight in your universe
 D#m7(5-)       G#7
You'd think my love was really
 C#m7   Cm7   Bm7
Some__thing  good
 E    A7    E
Baby, if I could
   G#m7     Gm7       F#m7
Change the     world
      A7    E
Baby, if I could
  G#m7     Gm7       F#m7
Change the     world
      A7    E
Baby, if I could
   G#m7  Gm7    Em11/G
Chan_______ge      the world

( E  A9/E  D6/E A9/E  E )

Solo Final:
E|----------------------------------------------------|
E|----------------------------------------------------|
B|---------7------------------------------------------|
G|-7/9--7~---7/9~-7/9~-9\7p5-7-~----------------------|
D|----------------------------------------------------|
E|----------------------------------------------------|

E|----------------------------------------------------|
B|----------------------------------------------------|
G|-0--------------------------------------------------|
D|---2-0h2-0---------------2-0-------------2~---------|
A|-----22----2--0h1p0-----------2-1-0-----------------|
E|--------------------3-0-------------3b-0------------|
Acordes para:

    0 comentarios

      mostrar más comentarios

      ¿Conseguiste tocar?

      28tocaron2aún no

      ¡Graba un vídeo tocando Change The World y envianoslo!

      00:00 / 00:00
      outros vídeos desta música
      repetirqualidadeautomática
      Outro vídeos desta música
        00:00 / 00:00
        automática
        Capítulos
        • Tocando a música
        • Dicas iniciais / Equipamentos
        • Acordes da Introdução
        • Tocando Introdução
        • Ensinando Introdução (Riff)
        • Ensinando Introdução (Solo)
        • Ensinando Introdução (Solo 2)
        • Acordes da Primeira Parte
        • Tocando Primeira Parte
        • Ensinando Primeira Parte
        • Acordes do Refrão
        • Tocando Refrão
        • Ensinando Refrão
        • Tocando Solo
        • Ensinando Solo
        • Acordes Finais
        • Tocando Final
        • Ensinando Solo Final
        • Encerramento
        • Ficha técnica / Erros de Gravação
        OK