Notificações Amigos pendentes

      Eric Clapton

      Change The World

      4.363 reproducciones
      Tono: A
      Introdução:
      
      
         E         A9/E    D6/E
      E|------------------------0--------0-----0--|
      B|----------------------------5------5------|
      G|---0h1-------2-----4----------------------|
      D|--------x-------x---------x----------x----|
      A|---2----x----4--x--5------x----------x----|
      E|-0------x--0----x----0----x---0------x----|
      
      
         D6/E      A9/E    E
      E|-------------------------0--------0-----0-|
      B|-----------------------------0------0-----|
      G|---4---------2-----0h1--------------------|
      D|--------x-------x----------x----------x---|
      A|---5----x----4--x--2-------x----------x---|
      E|-0------x--0----x------0---x---0------x---|
      
      
         E         A9/E    D6/E
      E|------------------------0--------0-----0--|
      B|----------------------------5------5------|
      G|---0h1-------2-----4----------------------|
      D|--------x-------x---------x----------x----|
      A|---2----x----4--x--5------x----------x----|
      E|-0------x--0----x----0----x---0------x----|
      
      
         D6/E      A9/E    B4(7)
      E|-------------------0----------------------|
      B|-------------------0----------------------|
      G|---4---------2-----2----------------------|
      D|--------x-------x--2----------------------|
      A|---5----x----4--x--2----------------------|
      E|-0------x--0----x-------------------------|
      
      
      Solo Intro:
      
      
      E|----------------------------------------------------|
      E|----------------------------------------------------|
      B|----------7-----------------------------------------|
      G|-7/9--7~----7/9~----7/9~-9\7p5--7-5-----------------|
      D|------------------------------------7p5---------5---|
      E|----------------------------------------7~--5-7---0-|
      
      
      
      Primeira Parte:
      
      E             A9/E       D6/E
        If I could reach the stars
      D6/E        A9/E     E
        Pull one down for you
      E          A9/E   D6/E
        Shine it on my heart
      D6/E            A9/E     E
        So you could see the truth
      A            D9/A       G6/A
        That this love I have inside
      G6/A      D9/A    A
      Is everything it seems
      
      E          A9/E  D6/E
        But for now I find
      D6/E        A9/E   G#7
        It's only in my dreams
      
      
      Refrão:
                F#m7   G#7       C#m7
      And I can      change the world
      D#m7(5-)    G#7             C#m7
      I'd be the sunlight in your universe
       D#m7(5-)       G#7
      You'd think my love was really
       C#m7   Cm7   Bm7
      Some__thing  good
       E    A7    E
      Baby, if I could
         G#m7  Gm7    F#m7
      Chan_______ge      the world
      
      
      Solo 2:
      
      E|----------------------------------------------------|
      E|----------------------------------------------------|
      B|---------7------------------------------------------|
      G|-7/9--7~---7/9~-7/9~-9\7p5-7-5----------------------|
      D|-------------------------------7p5-7~-5-5-5-5-5-5h7-|
      E|----------------------------------------------------|
      
      
      E       A9/E     D6/E
        If I could be king
      D6/E    A9/E  E
        Even for a day
      E              A9/E    D6/E
        I'd take you as my queen
      D6/E           A9/E     E
        I'd have it no other way
      A          D9/A       G6/A
        And our love would rule in this
      G6/A       D9/A    A
        Kingdom we have made
      E                A9/E  D6/E
        Till then I'd be a  fool
      D6/E       A9/E    G#7
        Wishin' for the day
      
      
      Repete o Refrão:
                 F#m7   G#7       C#m7
      That I can      change the world
      D#m7(5-)    G#7             C#m7
      I'd be the sunlight in your universe
       D#m7(5-)       G#7
      You'd think my love was really
       C#m7   Cm7   Bm7
      Some__thing  good
       E    A7    E
      Baby, if I could
         G#m7  Gm7    F#m7      E
      Chan_______ge      the world
            A7    E
      Baby, if I could
         G#m7  Gm7    F#m7
      Chan_______ge      the world
      
      Solo:
      E  A9/E  D6/E
      D6/E  A9/E  E
      E  A9/E  D6/E
      D6/E  A9/E  G#7
      
      
      E|--------10-10-10--10-10-10--------------------------|
      B|-10/12--12-12-12--12-12-12---12\10~-10-12~-10h12~---|
      G|----------------------------------------------------|
      D|----------------------------------------------------|
      A|----------------------------------------------------|
      E|----------------------------------------------------|
      
      
      E|----------------------------------------------------|
      B|-12\10~--8------------------------------------------|
      G|-------------9p7-----7h9-7--------------------------|
      D|-----------------9---------9\7p5--------------------|
      A|---------------------------------7------------------|
      E|----------------------------------------------------|
      
      
      E|----------------------------------------------------|
      B|--------------------7---10b12r10--8~----------------|
      G|------------7~--7-9---9--------------9--------------|
      D|----5--7/9------------------------------------------|
      A|-~7-------------------------------------------------|
      E|----------------------------------------------------|
      
      
      E|-------10--12-10h12-10h12-10------------------------|
      B|-10/12------------------------12-11-10-8------------|
      G|-----------------------------------------9----------|
      D|----------------------------------------------------|
      A|----------------------------------------------------|
      E|----------------------------------------------------|
      
      
      E|----------------------------------------------------|
      B|-10b12r10--8~---------------------------------------|
      G|---------------9-9~---------------------------------|
      D|----------------------------------------------------|
      A|----------------------------------------------------|
      E|----------------------------------------------------|
      
      
      E|----15b16-------------12--11~--14-12~-11----9~------|
      B|-12-------12\----9/14-----13~------------12---------|
      G|----------------------------------------------------|
      D|----------------------------------------------------|
      A|----------------------------------------------------|
      E|----------------------------------------------------|
      
      
      Refrão Final:
      
                 F#m7   G#7       C#m7
      That I can      change the world
      D#m7(5-)    G#7             C#m7
      I'd be the sunlight in your universe
       D#m7(5-)       G#7
      You'd think my love was really
       C#m7   Cm7   Bm7
      Some__thing  good
       E    A7    E
      Baby, if I could
         G#m7     Gm7       F#m7
      Change the     world
            A7    E
      Baby, if I could
        G#m7     Gm7       F#m7
      Change the     world
            A7    E
      Baby, if I could
         G#m7  Gm7    Em11/G
      Chan_______ge      the world
      
      ( E  A9/E  D6/E A9/E  E )
      
      Solo Final:
      
      E|----------------------------------------------------|
      E|----------------------------------------------------|
      B|---------7------------------------------------------|
      G|-7/9--7~---7/9~-7/9~-9\7p5-7-~----------------------|
      D|----------------------------------------------------|
      E|----------------------------------------------------|
      
      
      E|----------------------------------------------------|
      B|----------------------------------------------------|
      G|-0--------------------------------------------------|
      D|---2-0h2-0---------------2-0-------------2~---------|
      A|-----22----2--0h1p0-----------2-1-0-----------------|
      E|--------------------3-0-------------3b-0------------|
      
        Composición: Gérard Jouannest / Gordon Kennedy / Wayne KirkpatrickColaboración y revision:
        • gustavofofao
        • tanyarocha
        • pedrov2000
        • leblosh
        • +3

        Comentarios 24

        140 .
        • Angelo Angelo: Em 04/01/2016 18:15

          Po, pq não mantiveram as notas da video aula?????
          Que merda!

        • senhorpinga senhorpinga: Em 03/10/2015 12:16

          ta errada varias notas da tablatura da pagina, a da video aula esta correta!

        • Sl@sh Sl@sh: Em 28/08/2015 04:07

          Alguma coisa não tá batendo nessa harmonia!!! Sei não hein... :\

        • Sl@sh Sl@sh: Em 28/08/2015 04:02

          essa harmonia aí tá estranha hein!!! Algo não tá batendo, sei não...

        • pedrotakiyama pedrotakiyama: Em 24/09/2014 14:46

          Hey Fofão, na vídeo aula, o inicio do solo na tablatura está errado, seria b-12/10~-8--10--8

        • Del Finger Del Finger: Em 22/06/2014 19:46

          So ta faltando o video dos caras ensinando. Ta tudo bem explicado ai

        • leonidas.riverson leonidas.riverson: Em 01/06/2014 11:53

          Fácil u-ú

        • matt37 matt37: Em 24/10/2013 11:14

          www . cifras . com . br

          • davi.phellip davi.phellip: Em 27/09/2014 12:01

            entra intao no seu cifras ae pau no cuu

        140 cancelar

        ¿conseguiste tocar?

        • •••

        covers

        ¡Grave un vídeo tocando Change The World y envie para nosotros!

        Ex.: http://www.youtube.com/watch?v=0IvSvIwGdwk
        ver cover de otras canciones »
        0:00 / 0:00
        2 versões de contrabajo reproducciones contribuición y correción
        1 versão de armónica reproducciones contribuición y correción
        3 versões de Guitar Proformatodownloadscontribuición
        play/pausefechar subir/bajar velocidad
        6ª cuerda E5ª cuerda A4ª cuerda D3ª cuerda G2ª cuerda B1ª cuerda E
          acordes
          transcrição verificada gustavofofao instrutor de guitarra
          publicidad
          cerrar
          ok