Cifra Club

Cocaine

Eric Clapton

Tablatura: Principal (guitarra)
Tom: A
Intro (Guitarra 1)

   (Parte 1)                             (Parte 2)
E|------------------------------------|----------------------------------------|
B|------------------------------------|----------------------------------------|
G|------------------------------------|----------------------------------------|
D|---9-9-7-9---x-7--------------------|---9-9-7-9---x-7------------------------|
A|---7-7-5-7---x-5--------------------|---7-7-5-7---x-5---5-----5--------------|
E|------------------5h7p5h7p5h7p5-----|---------------------5h7---7--5/3--0\/--|

   (Parte 3)                             (Parte 4)
E|------------------------------------|----------------------------------------|
B|------------------------------------|----------------------------------------|
G|--------------------7---------------|----------------------------------------|
D|---9-9-7-9---x-7------9-7--5h6------|---9-9-7-9---x-7------------------------|
A|---7-7-5-7---x-5----------------7-5-|---7-7-5-7---x-5------------------------|
E|------------------------------------|---------------------5h7-5-3-0/---------|

Intro (Guitarra 2)

Obs..: começa a partir da Parte 2 da Guitarra 1!

E|----------------------|--------------------------|---------------------------|
B|----------------------|--------------------------|---------------------------|
G|---/9~~-/9-7~~--------|--9-9-7-9------9-7~~------|--9-9-7-9------9-7~~-------|
D|----------------------|--9-9-7-9---/9------------|--9-9-7-9---/9-------------|
A|----------------------|--------------------------|---------------------------|
E|----------------------|--------------------------|---------------------------|

Riff Principal (Vocal)

Guitarra 1:                                         Guitarra 2:

E|------------------------|                        |---------------------------|
B|------------------------|                        |---------------------------|
G|------------------7~----|                        |--9-9-7-9------9-7~~-------|
D|---9-9-7-9--------7~----|         (4x)           |--9-9-7-9---/9-------------|
A|---7-7-5-7------7-5~----|                        |---------------------------|
E|------------5h7---------|                        |---------------------------|

Riff Principal:

If you wanna hang out you've got to take her out,
cocaine.

Riff Principal:

If you wanna get down, down on the ground, cocaine.


Refrão:

E|---------------------------------------------|
B|---------------------------------------------|
C|-------9----------7----------5----4/---------|
D|-------9----------7----------5----4/---------|
A|-------7----------5----------3----2/---------|
E|---------------------------------------------|


She don´t lie,  she don´t lie,  she don´t lie
cocaine!



Riff Principal (Vocal) 2x



Riff Principal:

If you got bad news, you wanna kick them blues,
cocaine.

Riff Principal:

When your day is done and you wanna run, cocaine.



(Refrão)

(Riff Principal) (2x)


Base do solo = (Riff Principal)

(Solo)

     (Parte 1)
E|-----------------------------------------------------------------------------|
B|-----------------------------------------------------------------------------|
G|-------9--12b--9-x-9------9-------9--12--12b--9-9/---------------------------|
D|----12-----------------12------12--------------------------------------------|
A|-----------------------------------------------------------------------------|
E|-----------------------------------------------------------------------------|

     (Parte 2)
E|-----------------------------------------------------------------------------|
B|12--12--12----12---12--------------12----------------------------------------|
G|14b-14b-14b---14b--14r13-14--13b14---12-9-x-x-7h9~-9-7-----------------------|
D|-----------------------------------------------------------------------------|
A|-----------------------------------------------------------------------------|
E|-----------------------------------------------------------------------------|

     (Parte 3)
E|-----12----------------------------------------------------------------------|
B|---12---15-12---12------------------------15---------------------------------|
G|14b----------14---14-12-14b-14-12-9----9----14b16-16r14p12-------------------|
D|------------------------------------12--------------------14--12h14~---------|
A|-----------------------------------------------------------------------------|
E|-----------------------------------------------------------------------------|

                               (Parte 4)
E|------------------------||------12-------------------------------------------|
B|------------------------||----12---15-12----12------12-----12---15---15------|
G|-------12----------12b--||-14b----------14----14-12-14b16--16---16---16------|
D|-14-14----14-12-14------||---------------------------------------------------|  da casa 14 para
A|------------------------||---------------------------------------------------|  16!!!!!
E|------------------------||---------------------------------------------------|


E|-----------------------------------------------------------------------------|
B|--12-----12-----12------------15--------12----------------------------12-x---|
G|--14b16--14b16--14b16--14/-9~----14b16--16r14-14-12--12-12--------12--12-x---|
D|---------------------------------------------------14------x-x-14~--14-------|
A|-----------------------------------------------------------------------------|
E|-----------------------------------------------------------------------------|

E|-----------------------------------------------------------------------------|
B|-12------------12-x-12-x-12-12-----------15----15--------15-14-12------------|
G|-12------------12-x-12-x-12-12-----------14b16-14b16r14--14-14-12------------|
D|----14~--------12-x-12-x-12-12--14-12----------------------------14~---------|
A|---------12-14---------------------------------------------------------------|
E|-----------------------------------------------------------------------------|

     (Parte 5)
E|-12---12---12---12---12--12--12--12--12--------------------------------------|
B|---15b--15b--15b--15b----15b-15b-15b----15b16r15-12-------15-----------------|
G|----------------------------------------------------14b16----16r14-12--------|
D|-----------------------------------------------------------------------------|
A|-----------------------------------------------------------------------------|
E|-----------------------------------------------------------------------------|

     (Parte 6)obs: há uma segunda guitarra solando por baixo dessa recomendo improvisar um pouco
E|-----------------------------------------------------------------------------|no tom de F na 1ª
B|-----------------------------------------------------------------------------|escala blues!! ou
G|-------------12h14b16r14-12-14b16-12-16-12---------12------------------------|seguir esse jeito
D|-------12-14------------------------------12h14-14---14-12-14----------------|que está cifrado
A|-12-14-----------------------------------------------------------------------|por mim que cobre
E|-----------------------------------------------------------------------------|bem esse trecho!!


     (Parte 7)
E|-------------------------------------12--------------------------------------|
B|-----------------------------------12---15p12---12---------------------------|
G|14b-14b-12-14-12-14b16-12---14b-14b----------14----12------------------------|
D|------------------------------------------------------14---------------------|
A|-----------------------------------------------------------------------------|
E|-----------------------------------------------------------------------------|

E|-----------------------------------------------------------------------------|
B|----------------------12--12-------------------------------------------------|
G|----------------------12--12-------------------------------------------------|
D|-----------12---12h14---------14/--------------------------------------------|
A|---12--14---------------------12/--------------------------------------------|
E|-----------------------------------------------------------------------------|
                              cocaine!


Riff Principal:

If your thing is gone and you wanna ride on,
cocaine.

Riff Principal:

Don't forget this fact, you can´t get it back,
cocaine.

(Refrão)

(Riff Principal)

(Refrão)


Solo 2:
Base do solo 2 = Riff Principal!

Solo 2:
Base do solo 2 = Riff Principal!


E|-------------------------------10-10-7-10------------------------------------|
B|-5---------------x-8-x-8------------------10-8-10/---5--5--5----5-------5----|
G|-7b-7-7/9-7h9~/7---------9-7-------------------------7b-7b-7b---7b9—7b9------|
D|-----------------------------------------------------------------------------|
A|-----------------------------------------------------------------------------|
E|-----------------------------------------------------------------------------|


E|---------------------------------------------------------------------------...
B|------------5--------------------------------------------------------------...
G|--9r7---7b9—---9r7--7---7--------------------------------------------------...
D|----------------------9-----7-5------------------------------------5--------...
A|---------------------------------7~-----5h7-5-5---5h7-5h7-5-----5-----7-5-...
E|-------------------------------------------------7---------5h7---5h7-------... Vai abaixando o volume, improviso nas cordas G e B casas 7 e 9....


                                                      Música Cifrada por: Gah Moretti..
reproducciones 8.892

0 comentarios

mostrar más comentarios

¿Conseguiste tocar?

46 tocaron 1 aún no

¡Graba un vídeo tocando Cocaine y envianoslo!

00:00 / 00:00
outros vídeos desta música
repetir qualidade Automático
Outros vídeos desta música
00:00 / 00:00
Automático
OK