Cifra Club

Hoochie Coochie Man

Eric Clapton

Tablatura: Principal (guitarra)
Tom: D
Riff Inicial 10x:

E|---------------------------------|
B|---------------------------------|
G|---------------------------------|
D|-----3---3--5--------------------|
A|---5---5-------------------------|
E|---------------------------------|

Bm7                                             E7
(...) what this all about, but you know I'm here.
        Bm7
Everybody knows I'm here.
        F#7
Well, I'm the hoochie coochie man.
        Bm7     : TURN ARROUND :
Everybody knows I'm here.

Exemplo de : TURN ARROUND ::

E|------5-----5------5--------5--------5---------5---------5---------------------------0-----|
B|----------------------------------------------------------------------------------------3--|
G|----------------------------------------------------------------------------------------1--|
D|-----5------5-------4-------4--------3---------3---------2--------0-----1-----2----2-------|
A|-------------------------------------------------------------------------------------------|
E|-------------------------------------------------------------------------------------------|

(Riff inicial 8x)

A7      D9
(...) the hoochie coochie man but you know I'm here.
        A7
Everybody knows I'm here.
        E9      D9
Well, I'm the hoochie coochie man.
        A7      : TURN ARROUND :
Everybody knows I'm here.

(Solo de gaita)

Base do solo: A7  D9  A7  A7  D9  D9  A7  A7  E9  D9  A7  E9

(Riff inicial 8x)

A7      D9
(...) don't you mess with me, but you know I'm here.
        A7
Everybody knows I'm here.
        E9      D9
Well, I'm the hoochie coochie man.
        A7      : RIFF FINAL :
Everybody knows I'm here.

RIFF FINAL:

E|------------------------------------------------------------------------|
B|------------------------------------------------------------------------|
G|------------------------------------------------------------7------6----|
D|------------------------------------------------------------6------5----|
A|-------------------4----4---5---5---6----6-----7--------5------4--------|
E|------5-----5----------------------------------------------6------5-----|
reproducciones 2.048
Acordes para:
    Composição: Mário De Vasconcelos Sá Colaboración y revision:
    • Jorge André
    • thiago victório
    • Ricardo Lima

    0 comentarios

    mostrar más comentarios

    ¿Conseguiste tocar?

    1 tocaron 0 aún no

    ¡Graba un vídeo tocando Hoochie Coochie Man y envianoslo!

    00:00 / 00:00
    outros vídeos desta música
    repetir qualidade Automático
    Outros vídeos desta música
    00:00 / 00:00
    Automático
    OK