Cifra Club

If I Had Possession Over The Judgement Day

Eric Clapton

Tablatura: Principal (guitarra)
Tom: C
A musica inteira é tocada com slide.
Afinação é a mesma do dobro --> dBGDBG

Intro e Solo:
                   2x                          3x 
d||---0-0--5-5--5-0---5/-3/---3----------||----------||-------------------------------------|
B||-------------------------3---3-3/-2---||-0-3--0-3-||-------------------------------------|
G||-------------------------------3/-2---||-0-3--0-3-||-------------------------------------|
D||--------------------------------------||-----3----||-------------------------------------|
B||--------------------------------------||----------||--0-0-0-7-7-7-7-0-0-5-5-5-5-0-3-2-0--|
G||--------------------------------------||----------||-------------------------------------|

Durante os versos a base é a mesma que Rollin' & Tumblin' de Muddy Waters:
                 2x                            3x
d||---0-0--5-5--5-0---5/-3/-0--3--0------||----------||-------------------------------------||
B||---0-0--5-5--5-0---5--3--0--3--0-3/-2-||-0-3--0-3-||-------------------------------------||
G||---------------------------------3/-2-||-0-3--0-3-||--------7-7-7-7-----5-5-5-5---3-2-0--||
D||--------------------------------------||-----3----||--------7-7-7-7-----5-5-5-5---3-2-0--||
B||--------------------------------------||----------||--0-0-0-7-7-7-7-0-0-5-5-5-5-0-3-2-0--||
G||--------------------------------------||----------||-------------------------------------||
 If I Had Possession....                                       Lord, the Woman...
 Well, I Went to the Mountain...                               Some other man got my woman...

[Letra]
If I had possession over judgment day,
If I had possession over judgment day,
Lord, the women I'm lovin' would have no right to pray.

And I went to the mountain, far as my eye could see.
Lord, I went to the mountain, far as my eye could see.
Some other man got my woman and the lonesome blues got me.

Had to fold my arms and slowly walked away.
(I didn't like the way she done.)
Lord, I fold my arms and I slowly walked away.
Well, I said in my mind, "Your trouble gonna come some day."

[Solo]

And I rolled and I tumbled, cried the whole night long.
Lord, I rolled and I tumbled, cried the whole night long.
And I woke up this morning, my biscuit rollin' on.

Well, now run here baby, sit down on dad's knee.
Lord, now run here baby, sit down on dad's knee.
I wanna tell you all about the way they treated me.
reproducciones 247
Acordes para:
    Composição: Robert Johnson Colaboración y revision:
    • Fernando Vinicius

    0 comentarios

    mostrar más comentarios

    ¿Conseguiste tocar?

    0 tocaron 0 aún no

    ¡Graba un vídeo tocando If I Had Possession Over The Judgement Day y envianoslo!

    00:00 / 00:00
    outros vídeos desta música
    repetir qualidade Automático
    Outros vídeos desta música
    00:00 / 00:00
    Automático
    OK