Cifra Club

Little Queen Of Spades

Eric Clapton

Tablatura: Principal (guitarra)
Tom: A
intro:
      E7  E9
|---------7-7-7-7\--------------------------------------------------------------------------------------|
|---------7-7-7-7\--7h9-7-------7h9-7----------------------------------------8-5---5-5~~----------------|
|---------7-7-7-7\--------9-----------9-----7------------------------------------7-------(8)rb7p5-------|
|---------------------------10----------10----7~~----5---7-5--------------------------------------------|
|-5-6-7~~-0-0-0-0--------------------------------------7-----7-5-----5----------------------------------|
|----------------------------------------------------------------8-5---3h5------------------------------|
0:00
The vocals start with A7, followed by D11. Then we have some slide licks during the vocals:
|-------------5~~------------------------------------5~-------------|
|--8----------------------------------------------------------------|
|-----8\7-5--------9\7-5--------------------8\7-5--------------8\---|
|-----------7------------7-7------------5h7-------7--7---7-5-7------|
|------------------------------vocals--------------------soft-------|
|-------------------------------------------------------------------|
0:26                                   0:41
We continue this way until the songs ends with a solo starting at 4:03:
|------------------------------------------------------------------------------------------8h9----------|
|--5-5-5-8/10-10-10~~-5-5-5-8/10-10-10~~-----8-5-------------5-5-5-8/10-10-10-10--10~---10-----10-------|
|------------------------------------------------8\7--5-------------------------------------------9-7---|
|-------------------------------------------------------5-5---------------------------------------------|
|-------------------------------------------------------------------------------------------------------|
|-------------------------------------------------------------------------------------------------------|
4:03
|-------------------------/12-12-12-12b15-12-15-12h15p12----12------------------------------------------|
|---------/10-10-10-10-10--------------------------------15----15-13----15----13------------------------|
|--------------------------------------------------------------------14----14----12-9-------------------|
|-9h10-7------------------------------------------------------------------------------12-10----12----10-|
|-------------------------------------------------------------------very-fast---------------12----12----|
|-------------------------------------------------------------------------------------------------------|
4:14
|-----------17--17-17-15----17-15-----17-15----repeat..--------------------------------5---------5------|
|------------------------17-------17--------17-----------15----15-15b(17)-15---------5---5-8b(9)---8-5--|
|-----------------------------------------------------------17---------------17-14\---------------------|
|-------------------------------------------------------------------------------------------------------|
|--12\--------------------------------------------------------------------------------------------------|
|-------------------------------------------------------------------------------------------------------|
4:22
|---------------------------/8b-8b-9-8b--8b-9-8b-8b--8--5------------------5-----5----------------------|
|--5------------------------/7b-7b---7b--7b---7b-7b--7----5-5-5\---\5-5-8b---5-8---5-8-5----------------|
|----7-5h7p5-7---5h6--------/7b-7b---7b--7b---7b-7b--7-----------------------------------8-7-5---7---5--|
|--------------5-----7-------------------------------------------------------------------------7---7----|
|----------------------7--------------------------------------------------------------------------------|
|------------------------8~~----------------------------------------------------------------------------|
4:30
|---------------------------------8b(10)-5-----------------7----|
|--------------------------5-8-10----------5---------------7----|
|---------------------5-7--------------------7-5h6---------7----|
|--7-5----5-------5-7------------------------------5---5b-------|
|------7---------------------------------------------5----------|
|-----------8\--------------------------------------------------|
4:40
reproducciones 220
Acordes para:
    Composição: Robert Johnson Colaboración y revision:
    • Élison Duarte

    0 comentarios

    mostrar más comentarios

    ¿Conseguiste tocar?

    0 tocaron 0 aún no

    ¡Graba un vídeo tocando Little Queen Of Spades y envianoslo!

    00:00 / 00:00
    outros vídeos desta música
    repetir qualidade Automático
    Outros vídeos desta música
    00:00 / 00:00
    Automático
    OK