Cifra Club

Marry You

Eric Clapton

Cifrado: Completa (guitarra y guitarra eléctrica)
tono: G
Marry You (ERIC CLAPTON)

Tom: Em7

Intro:
======
  Wah! ...
----------------------|---------------------------------
----------------------|---------------------------------
----------------------|---------------------------------
--------5h7------7h9--|--------5h7------7h9-------------  (4x)
--7~--x-----7-x-------|--7~--x-----7-x------------------
----------------------|---------------------------------

----------------------|----------10-9-------------------|
----------------------|---------------12-10-12-8--------|
----------------------|----------------------------10~--|
----------------------|---------------------------------|
----------------------|---------------------------------|
----------------------|---------------------------------|

-------|------------|----------|----------------|----------|--------|
-------|--8-10br----|----------|--8-10br----8~--|----------|--8-10b-|
-------|---------9~-|--7h9-9~--|---------9------|--7h9-9~--|--------|
-------|------------|----------|----------------|----------|--------|
-------|------------|----------|----------------|----------|--------|
-------|------------|----------|----------------|----------|--------|

(Riffs Estrofe 1)
|------------||-----------||--------||--------------||---------||--------|
|-8-7------8-||-8p7-------||--------||-8-10br-----8-||---------||--------|
|-----7-9----||-----9p7-9-||-7h9--9-||--------9~----||-7h9--9--||-7-9~-9-|
|------------||-----------||--------||--------------||---------||--------|
|------------||-----------||--------||--------------||---------||--------|
|------------||-----------||--------||--------------||---------||--------|

Em7
 It's the sugar so sweet,
Am7                Bm7
 Kind I'd like to meet
Em7
 You at midnight
Am7              Bm7
 And tell no one else about it.


-----------------------------------------------------------------
-----------------------------------------------------------------
-----------------------------------------------------------------
-------------------------------2------------------------------2--
---------------------------2-5----------------------------2-5----
--5--5-5-5-5-5-5-5-5-5-5-5-------0--0-0-0-0-0-0-0-0-0-0-0--------

------------------------------------------------
------------------------------------------------
------------------------------------------------
-------------------------------2----------------
---------------------------2-5-----------3~~----
--5--5-5-5-5-5-5-5-5-5-5-5-------0-----0--------

(Riffs Estrofe 2)
|--------7----------||--------------||-------------||--------|
|-8-10b------10-8---||-8--10-10br---||-8-10br----8-||-8/7----|
|-----------------9-||------------9-||--------9~---||-----9~-|
|-------------------||--------------||-------------||--------|
|-------------------||--------------||-------------||--------|
|-------------------||--------------||-------------||--------|

Am7
 I'm going to make you mine
Em7
 'cause I know we've got the time
Am7
 Now and then, baby.
Em7                  C
 Hey, I want you to know,

    Em7
    I want to marry you.
                    Am7            Bm7
    Isn't that what you want, too?
         Em7
    I want to marry you.
                    Am7            Bm7
    Isn't that what you want, too?

Em7
 Come on in the back of the '57.
Am7                                  Bm7
 Let me show you the way, the way to heaven.
Em7
 You're looking so sweet, yes you are.
Am7                            Bm7
 I'm sure that you've got some heat.


-----------------------------------------------------------------
-----------------------------------------------------------------
-----------------------------------------------------------------
-------------------------------2------------------------------2--
---------------------------2-5----------------------------2-5----
--5--5-5-5-5-5-5-5-5-5-5-5-------0--0-0-0-0-0-0-0-0-0-0-0--------

------------------------------------------------
------------------------------------------------
------------------------------------------------
-------------------------------2----------------
---------------------------2-5-----------3~~----
--5--5-5-5-5-5-5-5-5-5-5-5-------0-----0--------

Am7
 I've got you on my mind
Em7
 You know you've got my time
Am7
 Now and then, baby.
Em7                 C
 Hey, I want you to know,

    Em7
    I want to marry you.
                    Am7            Bm7
    Isn't that what you want, too?
         Em7
    I want to marry you.
                    Am7            Bm7
    Isn't that what you want, too?

       Em7                A
I'm falling in love with you.
   Em7                        A
You make all my dreams come true.
        Em7                A ...
I'm falling in love with you.
(I want to marry you.)

Solo 1:
======
-----------------------------------------------------------------------
--12b--12-12~---10-12-10----10---------------------------12--------12--
-------------------------12------------------------12-14----12-14~-----
---------------------------------------12-14-12-14---------------------
---------------------------------12-14---------------------------------
-----------------------------------------------------------------------

-----12--------12-14~-12-12--
--12----12-15~---------------
-----------------------------
-----------------------------
-----------------------------
-----------------------------

-------------------------------------------------------
--15--15------------------12-15-------------------12\--
--14b-14br-12-------12----12-14br-12-------12-----12\--
--------------14-12----14------------14-12----14~------
-------------------------------------------------------
-------------------------------------------------------

-------------------------------14-16b--14------14------
--15--15--15....------14-16b--------------16~-----16~--
--14b-14b-14b...---------------------------------------
-------------------------------------------------------
-------------------------------------------------------
-------------------------------------------------------

    Em7
    I want to marry you.
                    Am7            Bm7
    Isn't that what you want, too?
         Em7
    I want to marry you.
                    Am7            Bm7
    Isn't that what you want, too?
    Em7
    I want to marry you.
                    Am7            Bm7
    Isn't that what you want, too?
         Em7
    I want to marry you.
                    Am7            Bm7
    Isn't that what you want, too?


Solo 2:   Pentatônica de "Em"
======
Composición de Charles Segar / Craig Ross / Doyle Bramhall II / Susannah Melvoin
Colaboración y revisión:
  • Marcio Vieira
8 vistas
    • ½ Tono
    • A
    • Bb
    • B
    • C
    • Db
    • D
    • Eb
    • E
    • F
    • F#
    • G
    • Ab
  • Agregar a la lista

    0 comentarios

    Ver todos los comentarios

    ¿Lograste tocar?

    0 Tocaron 0 Aún no

    ¡Graba un video tocando Marry You y envíanoslo!

    00:00 / 00:00
    Outros vídeos desta música
    Repetir Calidad Automático
    Outros vídeos desta música
    00:00 / 00:00
    Automático
    OK