Cifra Club

My father eyes

Eric Clapton

Tablatura: Principal (guitarra)
Tom: E
Intro:  C#m A  F#m  B    E   A  F#m  B  (2x)
        C#m A  F#m  B    E   A  F#m  B
        C#m A  F#m  B    E   A  D    D  A  E  A B

  vibr.....................................................................
E|-------------------------------------------------------------------------|
B|------5-------5-4--5/7-5---------------5-------5-4--5/7-5----------------|
G|-1--4-----------------------------1--4--------------------4--2-----------|
D|---------------------------------------------------------------6--4------|
A|--------------------------------------------------------------------7--6-|
E|-------------------------------------------------------------------------|

E|-------------------------------------------------------------------------|
B|----------5-p-4--5-5----9--7-p-5---------5-p-4--5-5----------------------|
G|-4---/-6---------------------------6-\-4---------------4-p-6-7--4-p-6-7--|
D|-------------------------------------------------------------------------|
A|-------------------------------------------------------------------------|
E|-------------------------------------------------------------------------|

E|--------------|
B|--------------|
G|-6--4--6--/-8-|
D|--------------|
A|--------------|
E|--------------|

Outra versão pra intro:
E|--------------------------------------------------------|
B|-------5-4-----------5---------------------------5-2-0--|
G|-----4---4---6-4-2/4-4---------4/6-4---------4/6-4-2-1--|
D|-4/6-----4-------------------2-----4-------2------------|
A|---------0---------------2/4-------0---2/4--------------|
E|---------------------4---------------------------4-2-0--|

E|--------------------------------------------------------|
B|--------------------------------------------------------|
G|-----2---2---------------4------------------------------|
D|--2--2---2---2h4-2---2---4------------------------------|
A|-------------------4-----2------------------------------|
E|-----2-2---2--------------------------------------------|

B              F#        G#m
 Sailing down behind the sun,
C#m       E     F#        B
 Waiting for my prince to come.
B         E     F#      G#m
 Praying for the healing rain
C#m     D       A     E
 To restore my soul again.

Fill 1:

E|-------------|
B|--------5-5--|
G|-1-/-4-------|
D|-------------|
A|-------------|
E|-------------|

C#m      A      F#m     B
 Just a toerag on the run.
E          A
 How did I get here?
F#m          B
 What have I done?
C#m         A      F#m    B
 When will all my hopes arise?
E            A
 How will I know him?
F#m          B              C#m   A  F#m
 When I look in my father's eyes.
B            E    A2  F#-
 My father's eyes.
             B             C#-   A2  F#-
 When I look in my father's eyes.
B           E      A  D  D  A  E  A
 My father's eyes.

B                F#        G#m
 Then the light begins to shine
C#m                E       F#   B
 And I hear those ancient lullabies.
B         E           F#       G#m
 And as I watch this seedling grow,
C#m      D              A   E
 Feel my heart start to overflow.

Fill 2:

E|-4----2-p-0---|
B|------------2-|
G|--------------|
D|--------------|
A|--------------|
E|--------------|

C#m          A      F#m        B
 Where do I find the words to say?
E          A
 How do I teach him?
F#m         B
 What do we play?
C#m     A     F#m    B
 Bit by bit, I've realized
E              A
 That's when I need them,
F#m           B                C#m  A  F#m
 That's when I need my father's eyes.
B            E    A  F#m
 My father's eyes.
               B                C#m  A  F#m
 That's when I need my father's eyes.
B            E    A  F#m
 My father's eyes.

Solo: E  E  A  B  C#m  B

Ponte: C#m  A  F#m  B (3x)
       C#m  A  F#m  A

Ponte:

   let ring
E|-7---------9----------------------7--5----5-------12-p-11-12-12--11--11-|
B|-------------5--5----9---9-p-7\5-------9-----5--------------------------|
G|------------------------------------------------------------------------|
D|------------------------------------------------------------------------|
A|------------------------------------------------------------------------|
E|------------------------------------------------------------------------|

Solo:

Gtr.1
E|---------12----12--11--12--12--12-11-12-p-14-12--12-p-11-12-12----------|
B|-9---12-----------------------------------------------------------------|
G|------------------------------------------------------------------------|
D|------------------------------------------------------------------------|
A|------------------------------------------------------------------------|
E|------------------------------------------------------------------------|

Gtr.2
E|-------------------------------16b--14-p-12--12-------------------------|
B|------------------------------------------------------------------------|
G|------------------------------------------------------------------------|
D|------------------------------------------------------------------------|
A|------------------------------------------------------------------------|
E|------------------------------------------------------------------------|

Gtr.1
E|------------------------------------------------------------------------|
B|--12---10---------------------------------------------------------------|
G|-----------13---11------------------------------------------------------|
D|--------------------14---11--14/16--------------------------------------|
A|------------------------------------------------------------------------|
E|------------------------------------------------------------------------|

Then the jagged edge appears
Through the distant clouds of tears.
I'm like a bridge that was washed away;
My foundations were made of clay.

Fill 2:

  vibr...........
E|-1-----/-----4-|
B|---------------|
G|---------------|
D|---------------|
A|---------------|
E|---------------|

As my soul slides down to die.
How could I lose him?
What did I try?
Bit by bit, I've realized
That he was here with me;
I looked into my father's eyes.
My father's eyes.
I looked into my father's eyes.
My father's eyes.

My father's eyes.
My father's eyes.
I looked into my father's eyes.
My father's eyes.
reproducciones 1.586
Acordes para:
    Colaboración y revision:
    • Guilherme Oliveira
    • Taino Vieira

    0 comentarios

    mostrar más comentarios

    ¿Conseguiste tocar?

    2 tocaron 2 aún no

    ¡Graba un vídeo tocando My father eyes y envianoslo!

    00:00 / 00:00
    outros vídeos desta música
    repetir qualidade Automático
    Outros vídeos desta música
    00:00 / 00:00
    Automático
    OK