Cifra Club

Outside Woman Blues

Eric Clapton

Tablatura: Principal (guitarra)
Tom: E
Intro:
          E9+
e||----------------------|
B||-------8--------------|
G||-------7--------------|  4x
D||-------6------2-----0-|
A||-------7--2h4---0h2---|
E||--0-0-----------------|

Versos:
              
e||----------------------|----------------------|-------------------------||
B||-------8--------------|-------8--------------|-------------------------||
G||-------7--------------|-------7--------------|--------4----------------||
D||-------6------2-----0-|-------6------2-----0-|----5-7---7-5---5~~------||
A||-------7--2h4---0h2---|-------7--2h4---0h2---|--7-----------7----7-----||
E||--0-0-----------------|--0-0-----------------|-------------------------||
If you lose your money... ...don't lose your mind

Refrão:
          B9+
e||-----------------------|------------------------------||
B||-------3--3--3--3------|-----------12-----------------||
G||-------2--2--2--2------|-----12-14----14-12----12~~---||
D||-------1--1--1--1------|--14----------------14-----14-||
A||-0-1-2-2--2--2--2------|------------------------------||
E||-----------------------|------------------------------||
And if you..., please...

Letra:

If you lose your money, great God, don't lose your mind.
If you lose your money, great God, don't lose your mind.
And if you lose your woman, please don't fool with mine.

I'm gonna buy me a bulldog, watch my lady whilst I sleep.
I'm gonna buy me a bulldog, watch my lady whilst I sleep.
'Cause women these days, they're so doggone crooked,
That they might make off 'fore day creep.

Well, you can't watch your wife and your outside women, too.
You know you can't watch your wife and your outside womens, too.
Cause when you're out with your women, your wife will be at home,
Cooking your food, doing your dirt, buddy what you trying to do?

You can't watch your wife and your outside womens, too.
You know you can't watch your wife and your outside women, too.
When you're out with your women, your wife will be at home,
Doing a dirt, cooking your food, buddy what you trying to do?
reproducciones 843
Acordes para:
    Composição: Blind Joe Reynolds Colaboración y revision:
    • Fernando Vinicius

    0 comentarios

    mostrar más comentarios

    ¿Conseguiste tocar?

    4 tocaron 0 aún no

    ¡Graba un vídeo tocando Outside Woman Blues y envianoslo!

    00:00 / 00:00
    outros vídeos desta música
    repetir qualidade Automático
    Outros vídeos desta música
    00:00 / 00:00
    Automático
    OK