Cifra Club

A Song For Life

Eric Johnson

Cifrado: Principal (guitarra y guitarra eléctrica)
tono: B
E||--------------0----------0------|--------------0----------0------|
B||-------0-----------0------------|-------0-----------0------------|
G||----------2----------2----------|----------2----------2----------|
D||------------4--------------2h-4-|------------4--------------2h-4-|
A||-----4--------------------------|-----4--------------------------|
E||--2--------------2-----2--------|--2--------------2-----2--------|

--------------0----------0------|--------------0-0----------7--|
-------0-----------0------------|-------0--------0-----7s9-----|
----------2----------2----------|----------2-------------------|
------------4--------------2h-4-|------------4-----------------|
-----4--------------------------|-----4----------------5s7-----|
--2--------------2-----2--------|--2-------------0-------------|

--5-----5p-0-----------0--------7--|--0------------0------------|
---------------0-----------7s9-----|-------0--------------------|
-------------------2---------------|-----------2----------6--4--|
-----2-----------2-----------------|-----2-------2---2----3-----|
--0----------0-------0-----5s7-----|--0------0------------------|
-----------------------------------|----------------------4-----|

------------------------0--2--|--5-----4-----5----------7--|
--------0--2----3-------------|--------------2-----7s9-----|
--2---------------------------|--------------2-------------|
--------4----------4-------0--|--2-----2-----2-------------|
-----4----------2-------4-----|--------------0-----5s7-----|
--2---------------------------|----------------------------|

--5-----5p-0-----------0--------7--|--0------------0------------|
---------------0-----------7s9-----|-------0--------------------|
-------------------2---------------|-----------2----------6--4--|
-----2-----------2-----------------|-----2-------2---2----3-----|
--0----------0-------0-----5s7-----|--0------0------------------|
-----------------------------------|----------------------4-----|

------------------------0--2--|--5-----4-----|--5--------5----5---------5----|
--------0--2----3-------------|--------------|-----2--------------3----------|
--2---------------------------|--------------|-------2--------------4--------|
--------4----------4-------0--|--2-----2-----|---------2---2----3-----3---3--|
-----4----------2-------4-----|--------------|--0-------------0--------------|
--2---------------------------|--------------|-------------------------------|

--5--------5-------5p----0---5p-0---5p-0----|--5--------5----5---------5----|
-----6---------6---6---------6------6-------|-----2--------------3----------|
-------7-----7-----7---------7------7-------|-------2--------------4--------|
---------7---------7---------7------7-------|---------2---2----3-----3---3--|
--0-----------------------------------------|--0-------------0--------------|
--------------------------------------------|-------------------------------|

--5--------5---------------5-----|--0-----------0-----------|
-----6---------6-----6-----------|--2-----------3-----------|
-------7-----7---------7---------|--2-----------4-----------|
---------7---------7-----7---0---|--2-----------3-----------|
--0--------------0---------------|--------------------------|
---------------------------------|-----0--0--0-----0--0--0--|

--0--------0----0----0------|--0-----------0-----------|
--6--------6----6----6------|--2-----------3-----------|
--7--------7----7----7------|--2-----------4-----------|
--7--------7---------7------|--2-----------3-----------|
-----------0----------------|--------------------------|
-----0--0-----0----0-----0--|-----0--0--0-----0--0--0--|

--0--(0)---------------------0---------7--|--5-----5p-0-----------0--------7--|
--0--(0)--------------------------7s9-----|---------------0-----------7s9-----|
--5--------------9------------------------|-------------------2---------------|
--7--------9h-12---12p-9------------------|-----2-----------2-----------------|
--7----------------------12-------5s7-----|--0----------0-------0-----5s7-----|
-----(0)--------------------12------------|-----------------------------------|

--0------------0------------|---------------------0--2--|--5-----4-----|
-------0--------------------|--------0--2---3-----------|--------------|
-----------2----------6--4--|--2------------------------|--------------|
-----2-------2---2----3-----|--------4---------4-----0--|--2-----2-----|
--0------0------------------|-----4---------2-----4-----|--------------|
----------------------4-----|--2------------------------|--------------|

--------------0----------0------|--------------0----------0------|
-------0-----------0------------|-------0-----------0------------|
----------2----------2----------|----------2----------2----------|
------------4--------------2h-4-|------------4--------------2h-4-|
-----4--------------------------|-----4--------------------------|
--2--------------2-----2--------|--2--------------2-----2--------|

--------------0----------0------|--------------0----------0------|
-------0-----------0------------|-------0-----------0------------|
----------2----------2----------|----------2----------2----------|
------------4--------------2h-4-|------------4--------------2h-4-|
-----4--------------------------|-----4--------------------------|
--2--------------2-----2--------|--2--------------2-----2--------|

--------------0----------0------|--------------0----------0------|
-------0-----------0------------|-------0-----------0------------|
----------2----------2----------|----------2----------2----------|
------------4--------------2h-4-|------------4--------------2h-4-|
-----4--------------------------|-----4--------------------------|
--2--------------2-----2--------|--2--------------2-----2--------|

--0------------0-------0-------|-------------------------------------|
--------0----------------------|----------------------7-10~----------|
----6---------------2----------|--------------4-6-7-9----------------|
------7----7------2------------|--------4-6-7------------------------|
---------------0---------------|--4-5-7------------------------------|
--3------------------------0-7-|-------------------------------------|

--10-------10p-9--7----|--5---------7----|--5----2p-0--------|-----------------|
-----------------------|-------7---------|--------------3----|-----------------|
-----------------------|-----------------|-------------------|----------0------|
--9--------9-----------|--4--------------|-------------------|-------0---------|
-----------------------|-----------------|-------------------|-----------------|
-----------------------|-----------------|--3----------------|--3--------------|

--10-------10p-9--7----|--5---------7----|--5-----------5----|
-----------------------|-------7---------|--3----------------|
-----------------------|-----------------|--------0----------|
--9--------9-----------|--4--------------|-----0-----0-------|
-----------------------|-----------------|-------------------|
-----------------------|-----------------|--3----------------|

------------5-------|--10-------10p-9--7----|--5---------7----|
--------------------|-----------------------|-------7---------|
---------0----------|-----------------------|-----------------|
--4p--0-------------|--9--------9-----------|--4--------------|
--------------------|-----------------------|-----------------|
---------------3----|-----------------------|-----------------|

--5----2p-0--------|------------------|------------------------0-|
--------------3----|------------------|--------3---------3-------|
-------------------|----------0-------|------0-----0-------0-----|
-------------------|-------0-----0----|----4-----4-----4-----4---|
-------------------|------------------|--------------------------|
--3----------------|--3---------------|--2-----------2-----------|

---------------------|---------------------|-----------------|
------3------2-------|--3-------3p-2-------|------------0----|
--------0----x-------|--4-------------4----|--2--------------|
----4-----4--4-------|--4------------------|-------4---------|
-------------x-------|--2------------------|-----------------|
--2----------2-------|---------------------|--2--------------|

---------------------|--------------------|---------------------|
---------------------|--------------------|--3-------3p-2-------|
--2------------------|--------0-----------|--4-------------4----|
-------4p-2p-0--0----|-----0--------0-----|--4------------------|
---------------------|--------------------|--2------------------|
--3------------------|--3--------3--------|---------------------|

-----------------|-------------------|--------------------|
------------0----|-------------------|--------------------|
--2--------------|--2-------2--------|------------2-------|
-------4---------|-------0--------0--|--4p--0-------------|
-----------------|-------------------|--------------------|
--2--------------|--3----------3-----|---------3----------|

---------------------|-----------------|---------------------|-----------------|
--3-------3p-2-------|------------0----|---------------------|------------5----|
--4-------------4----|--2--------------|--2------------------|-------2---------|
--4------------------|-------4---------|-------4p-2p-0--0----|--0--------------|
--2------------------|-----------------|---------------------|-----------------|
---------------------|--2--------------|--3------------------|-----------------|

--------------------------|--0---------0---0-0h-1p-0---0--|
--3---3-----3-----3-------|------3-------------------3----|
--------2-----------3-----|--------3----------------------|
----------4-----5-----5---|----3-----3---3----------------|
--0-0---------0-----------|--0----------------------------|
--------------------------|-------------------------------|

--------------------------|--0---------0-------------|--5--------5-------------|
--3---3-----3-----3-------|------3-----------3-------|-----2-----------3-------|
--------2-----------3-----|--------3-----------3-----|-------2-----------4-----|
----------4-----5-----5---|----3-----3-----3-----3---|---------2-----3-----3---|
--0-0---------0-----------|--0-----------0-----------|--0----------0-----------|
--------------------------|--------------------------|-------------------------|

--5--------5-------------|--5--------5-------------|--5--------5-------------|
-----6-----------6-------|-----2-----------3-------|-----6-----------6-------|
-------7-----------7-----|-------2-----------4-----|-------7-----------7-----|
---------7-----7-----7---|---------2-----3-----3---|---------7-----7-----7---|
--0----------0-----------|--0----------0-----------|--0----------0-----------|
-------------------------|-------------------------|-------------------------|

--5--------5------------5-|-----------5-----------5------|
-----2-----------3--------|-----6-----------6------------|
-------2-----------4------|-------0-----------0----------|
---------2-----3-----3p-0-|-----7---7-----7-----7--------|
--0----------0------------|--0----------0----------------|
--------------------------|------------------------------|

    H.A.
----12------------------------9-|-----12------------|---------------||
---------------------------10---|-----10------------|---------------||
-------------------------9------|-------------------|---------------||
------------------7-9-11--------|-------------------|---------------||
----------------7---------------|--12---------------|---------------||
--------5h-7h-9-----------------|-------------------|---------------||
Composición de Eric Johnson
Colaboración y revisión:
  • Guilherme Faria
440 vistas
    • ½ Tono
    • A
    • Bb
    • B
    • C
    • Db
    • D
    • Eb
    • E
    • F
    • F#
    • G
    • Ab
  • Agregar a la lista

    0 comentarios

    Ver todos los comentarios

    ¿Lograste tocar?

    1 Tocaron 1 Aún no

    ¡Graba un video tocando A Song For Life y envíanoslo!

    00:00 / 00:00
    Outros vídeos desta música
    Repetir Calidad Automático
    Outros vídeos desta música
    00:00 / 00:00
    Automático
    OK