Cifra Club

Blues By Six

Eric Johnson

Cifrado: Principal (guitarra y guitarra eléctrica)
tono: C
Tabbed by:Tom Vine
Email:

Tuning:E,A,d,g,b,e

e|------------------------------------|
B|------------------------------------|
G|----8--10----8-10-----8-10--10-8----|
D|-10-8--10-10-8-10--10------------10-|
A|------------------------------------|
E|------------------------------------|

e|------------------------------------|
B|----9--11----9-11-------------------|
G|----8--10----8-10-----8-10--10-8----|
D|-10-8--10-10-8-10--10------------10-|
A|------------------------------------|
E|------------------------------------|

e|---------------------------------------------|
B|---9~----------------------------------------|
G|-8---10-8------------------------------------|
D|----------10-9-8h9p8------8------------------|
A|---------------------11-8---11-8-------------|
E|---------------------------------11-10-9-8-7-|

e|--------------------------------------|
B|----9--11----9-11-----9/11\9----------|
G|----8--10----8-10-----8/10\8--10-8----|
D|-10-8--10-10-8-10--10--------------10-|
A|--------------------------------------|
E|--------------------------------------|

e|--------------------------------------|
B|----9--11----9-11---------------------|
G|----8--10----8-10-----8/10-10-10\8----|
D|-10-8--10-10-8-10--10--------------10-|
A|--------------------------------------|
E|--------------------------------------|

e|-----------------------------------------------------------------------|
B|---9/11-9--------------------------------------------------------------|
G|10--------10-8----8-10-8/10-8/10-8-------------------------------------|
D|---------------10------8/10-8/10---10-8h9p8---8-9-8--------------------|
A|-------------------------------------------11-------11-8---------------|
E|---------------------------------------------------------11-10-9-8-7-5-|

e|----------------|---------------------------------------------|
B|----------------|---------------------------------------------|
G|----------------|---------------------------------------------|
D|----------------|---------------------------------------------|
A|-----7-9/10-9-7-|---------------------------------------------|
E|-7h9------------|---------------------------------------------|

Thats a main theme and a few little scale things for the song, im not sure wether if its 
by anyone or anything if it is then i might finish it off another time

| /  slide up
| \  slide down
| h  hammer-on
| p  pull-off
| ~  vibrato
| +  harmonic
| x  Mute note
============================================================================
Composición de Eric Johnson
46 vistas
    • ½ Tono
    • A
    • Bb
    • B
    • C
    • Db
    • D
    • Eb
    • E
    • F
    • F#
    • G
    • Ab
  • Agregar a la lista

    0 comentarios

    Ver todos los comentarios

    ¿Lograste tocar?

    0 Tocaron 0 Aún no

    ¡Graba un video tocando Blues By Six y envíanoslo!

    00:00 / 00:00
    Outros vídeos desta música
    Repetir Calidad Automático
    Outros vídeos desta música
    00:00 / 00:00
    Automático
    OK