Cifra Club

Classical Soul

Eric Johnson

Cifrado: Principal (guitarra y guitarra eléctrica)
tono: C (con acordes en la forma de A) Capotraste en 3ª casa
Acoustic Guitar (Capo 3)
                                                                            
E||-----------|--------0-------0-------0-------0-|------0-------0----------|
B||-----------|------1-------1-------1-------1---|----1---1---1------------|
G||-----------|----4-------4-------4-------4-----|--4-------4--------------|
D||-----------|--2-------2-------2-------2-------|-------------------------|
A||--0--------|----------------------------------|-------------------------|
E||-----------|----------------------------------|-------------------------|
                                                                     
-----------|--------0-------0-------0-------0-|------0---------------|
-----------|------1-------1-------1-------1---|----1---1-------------|
-----------|----4-------4-------4-------4-----|--4-------------------|
-----------|--2-------2-------2-------2-------|----------------------|
-----------|----------------------------------|----------------------|
--3--------|----------------------------------|----------------------|
                                                                           
--------3----1-3-1-0-------|---------------------|--------5-----4---4------|
------1--------------3-----|-----------1p0h1-1---|-----------3----3--------|
----2----------------2-----|---------------------|-----4-------------------|
--3------------------3-----|---------------------|-------------------------|
---------------------------|---------------------|-------------------------|
---------------------------|---------------------|--0----------------------|
                                                        
---------8------------|--------7~-----------|----------|
--3/6-----------------|-----6---------------|----------|
------7---------------|--7------------------|----------|
----------------------|---------------------|----------|
----------------------|---------------------|----------|
----------------------|---------------------|----------|
                                                        4x
|--------------------------|----------------------------||
|---1--------0-------------|--3--------1-3-1--0---------||
|*--2--2----------2--------|-----2---------------2-----*||
|*--------2----------2-----|--------2---------------2--*||
|---0-------------------0--|----------------------------||
|--------------------------|----------------------------||
                                                       
---0--------0--------------|--------------------------|
---------------3-----3--1--|--------1-----0-----0--1--|
*--------2--------2--------|-----------2-----2--------|
*-----2--------------------|-----2--------------------|
---0--------0--------0-----|--0-----------------------|
---------------------------|--------------------------|
                                                                                
--0--------0--------------|-----------0--0----------|--1--------3--0--1--------|
--------1-----3-----3--1--|--------1--1--1----1-----|--------3--------------3--|
-----2-----------2--------|-----2----------------2--|-----2--------------2-----|
--3--------3--------------|--3--------3--3----------|--0--------0--------0-----|
--------------------------|-------------------------|--------------------------|
--------------------------|-------------------------|--------------------------|
                                                                               
--------------------------|--1--------0--------------|-----------0----0-------||
--------3--1--0-----0--1--|--3-----3-----3--1-----0--|-----------0----0-------||
-----2-----------2--------|-----2--------------2-----|--------1--1----1------*||
--3--------3--------3-----|--------------------------|-----2-----------------*||
--------------------------|--------------------------|------------------------||
--------------------------|--0--------0--------0-----|--0-----0--0----0-------||

--0--------0--0-----------|--0------0--2----4----||---8--------8--7-----7------|
--3--------------3--------|--0-------------------||------------------------10--|
--------2--------------2--|----------------------||*--------9--------9---------|
-----2--------------2-----|----------------------||*-----7---------------------|
--------------------------|----------------------||---0------------------------|
--0-----------------------|--0-------------------||----------------------------|

--------------------------|--8--------8--7-----------|------------------------|
-----------10-------------|--------6-----------5--6--|---------6--5-----5--6--|
--------9--------9--------|-----7-----------7--------|----7----------7--------|
-----7--------------7-----|--0-----------------------|------------------------|
--0--------------------0--|-----------------------8--|------------------------|
--------------------------|--------------------------|------------------------|
                                                      
-------7-------------------|-------------------------|
----------10-----10--------|--9------6-8-6--5--6--8--|
---------------------9-----|-------------------------|
------------------------7--|-------------------------|
--7-----------7------------|-------------------------|
---------------------------|-------------------------|

--------0--------0--------|--------0-----------------||
--------0--------0--------|--------0----------0------||
--------------------------|----------------2-----2--*||
-----2--------2-----------|-----0-------------------*||
--0--------3--------2--0--|--------------------------||
--------------------------|--4--------0--------------||
                                                      
---0--------0--------------|--------------------------|
---------------3-----3--1--|--------1-----0-----0--1--|
*--------2--------2--------|-----------2-----2--------|
*-----2--------------------|-----2--------------------|
---0--------0--------0-----|--0-----------------------|
---------------------------|--------------------------|
                                                                         
--0--------0--------------|-----------0--0----------|--1--------3--0--1--------|
--------1-----3-----3--1--|--------1--1--1----1-----|--------3--------------3--|
-----2-----------2--------|-----2----------------2--|-----2--------------2-----|
--3--------3--------------|--3--------3--3----------|--0--------0--------0-----|
--------------------------|-------------------------|--------------------------|
--------------------------|-------------------------|--------------------------|
                                                                 
--------------------------|--1--------0--------------|-----------0----0-------||
--------3--1--0-----0--1--|--3-----3-----3--1-----0--|-----------0----0-------||
-----2-----------2--------|-----2--------------2-----|--------1--1----1------*||
--3--------3--------3-----|--------------------------|-----2-----------------*||
--------------------------|--------------------------|------------------------||
--------------------------|--0--------0--------0-----|--0-----0--0----0-------||
                                                                    
--0--------0--0-----------|--0------0--2----4----||---8--------8--7-----7------|
--3--------------3--------|--0-------------------||------------------------10--|
--------2--------------2--|----------------------||*--------9--------9---------|
-----2--------------2-----|----------------------||*-----7---------------------|
--------------------------|----------------------||---0------------------------|
--0-----------------------|--0-------------------||----------------------------|
                                                                    
--------------------------|--8--------8--7-----------|------------------------|
-----------10-------------|--------6-----------5--6--|---------6--5-----5--6--|
--------9--------9--------|-----7-----------7--------|----7----------7--------|
-----7--------------7-----|--0-----------------------|------------------------|
--0--------------------0--|-----------------------8--|------------------------|
--------------------------|--------------------------|------------------------|
                                              
-------7-------------------|-------------------------|
----------10-----10--------|--9------6-8-6--5--6--8--|
---------------------9-----|-------------------------|
------------------------7--|-------------------------|
--7-----------7------------|-------------------------|
---------------------------|-------------------------|
                                                  
--------0--------0--------|--------0-----------------||----||
--------0--------0--------|--------0----------0------||----||
--------------------------|----------------2-----2--*||----||
-----2--------2-----------|-----0-------------------*||----||
--0--------3--------2--0--|--------------------------||----||
-------------------------|--4--------0--------------||----||
Compositor não encontrado.
Colaboración y revisión:
  • rodrigo matos
  • Nícolas Anderson
192 vistas
    • ½ Tono
    • A
    • Bb
    • B
    • C
    • Db
    • D
    • Eb
    • E
    • F
    • F#
    • G
    • Ab
  • Agregar a la lista

    0 comentarios

    Ver todos los comentarios

    ¿Lograste tocar?

    0 Tocaron 0 Aún no

    ¡Graba un video tocando Classical Soul y envíanoslo!

    00:00 / 00:00
    Outros vídeos desta música
    Repetir Calidad Automático
    Outros vídeos desta música
    00:00 / 00:00
    Automático
    OK