Cifra Club

Forty Mile Town

Eric Johnson

Tab de bajo: Principal
(intro)

|-------------------------------------|
|--------4-5--------------------------|
|-------------------------------------|
|--3--3------3--3---------------------|

(principal)
|-------------------------------------|
|-----5-------------------------------|
|--3----------------------------------|
|-------1-----------------------------|

(principal 2)
"I know your there most everyday..."
|-------------------------------------|
|-------------------------------------|
|--1---1------------------------------|
|----1---1----------------------------|

|------------------------------------------|
|------------------------------------------|
|------------------------------------------|
|-3----3-5-6-----3----3-5-6----------------|
00:00 / 00:00
Otros videos de esta canción
Repetir
Otros videos de esta canción
Composición de Eric Johnson
Colaboración y revisión:
  • Paulo Ricardo
21 vistas

0 comentarios

Ver todos los comentarios

¿Lograste tocar?

0 Tocaron 0 Aún no

¡Graba un video tocando Forty Mile Town y envíanoslo!

00:00 / 00:00
OK