Cifra Club

Manhattan

Eric Johnson

Cifrado: Principal (guitarra y guitarra eléctrica)
tono: Bb
Intro:
  Gtr I
  Q   e e S  S E e e   S  E. E E S S S s S S e   E E  e e S  s E e e
|----11-9------------|-----------------------6-|-----11-9-------------|
|---------9 11-----7-|-9 11------7 9 7---7h9---|-7--------9s11---7-9--|
|-----8-6--------8---|-----------------6-6h8---|-6----8-6-------------|
|---------6..8-----4-|-6s=8--------------------|----------6s=8---4-6--|
|----------------6---|---------6---------------|----------------------|
|--------------------|-------------------------|----------------------|

   S E. E E  S  s E S S E   +E  E  e e S  S e e e   S  E S E E e E E E
|------------------------|-------11-9------------|------------4-6-----|
|----------11h12---7s9s7-|-(7)--------9s11-----7-|-9s11-----7-4-4-----|
|-6s8------11------4s6s4-|-(4)----8-6--------8---|----------4---------|
|----------11------6s8s6-|-(6)--------6s=8-----4-|-6s=8-----8---4-----|
|-4s6----9---------------|-------------------6---|------------------4-|
|------------------------|-----------------------|--------------------|

                       ~~
  Q  S  S  S  S  a  E  E  +E   S  S
|-4---------------------------------|
|-2---------------------------------|
|-4-------------11h13-11-(11)-10----|
|---------11-13------------------11-|
|------13---------------------------|
|-----------------------------------|

   ~~~
   E. S  e  e E e E e   e E  e  e S  s E e e
|---------------------|-----11-10------------||
|---------------------|-4---------9-11-----7-||
|-------11-10-8---6---|-3----8--7--------8---||
|-13------------8---6-|-1---------6--8-----4-||
|---------------------|------------------6---||
|-------11--9-7---6---|----------------------||

 .                    |-3-|
  S  s E S  E  +S   E E E  S  S  e
|--------9s11-(11)\----------------|
|-9s11---9s11-(11)\----------------|
|-------------------------------10-|
|-6s=8-----------------------11----|
|---------------------8-9-11-------|
|----------------------------------|
                                                 ~
   E E  a      +Q    +S   +S   S  S  S  S  S  S   Q  Q  E e E E
|----------------------------------------------|---------2-----|
|----------------------------------------------|-------6-----4-|
|-8---15b18==(18)--(18)r(15)-11----------------|-------6-----4-|
|-------------------------------13-11----------|---------------|
|-9-----------------------------------13-11h13-|-9-----2-------|
|----------------------------------------------|---------------|
   +E  E  e e S  S E S S e   S  E S E E e E E E
|-------11-9--------------|------------4-6-----|
|-(4)--------9s11-------7-|-9s11-----7-4-4-----|
|-(4)----8-6--------6s8---|----------4---------|
|------------6s=8-------4-|-6s=8-----8---4-----|
|-------------------4s6---|------------------4-|
|-------------------------|--------------------|

                       ~~
  Q  S  S  S  S  S  S  E  +E   S  S
|-4---------------------------------|
|-2---------------------------------|
|-4-------------13s15-11-(11)-10----|
|---------11-13------------------11-|
|------13---------------------------|
|-----------------------------------|

   ~~~
    E. S  e  e E e E e   e E E S S +S   S  E S  s E    Q.    E  E E E E
|---------------------|-----6-7s9-(9)-(7)----------||-2----------2---2-|
|---------------------|-4-------------------9s11---||-4----------4---4-|
|-------11-10-8---6---|-3---3-4s6-(6)-(4)----------||-4----------4---4-|
|-13------------8---6-|-3-------------------6s=8---||-4----------4---4-|
|---------------------|----------------------------||----------------4-|
|-------11--9-7---6---|----------------------------||-4----(4)-4-------|

   +E  E e e a  E  E E S S   H    +E  e E E   +E  E  e  a  E  +S  s  e a  e E
|-(2)---------------------|-2----(2)-----2-|-(2)-------------------11--------|
|-(4)-----7-9s11s12-----x-|-4----(4)-----4-|-(4)---11-12s14-(14)------9s11---|
|-(4)---8---------------x-|-4----(4)-6---4-|-(4)--------------------8--------|
|-(4)-----4-6s=8s=9-----x-|-4----(4)-----4-|-(4)----8--9s11-(11)------6s=8---|
|-(4)---6-----------------|--------------4-|-(4)-----------------------------|
|---------------------4---|-4----(4)-6-----|---------------------------------|

                                             ~~           ~~
  Q.   S S E e E E   +E  E S  S  S  S  S  S  E e  S  S    Q   e  e E e E e
|-2----------2---2-|-(2)-------------------------------|-------------------|
|-4----------4---4-|-(4)-------------------------------|-----11--9-7---6---|
|-4----------4---4-|-(4)--------------11h13-11---10----|-----11-10-8---6---|
|-4----------4---4-|-(4)--------11-13---------------11-|-13----------------|
|----------------4-|-(4)-----13------------------------|-------------------|
|-4----4-4-4-------|-----------------------------------|-----11--9-7---6---|

                        .
  E E  e e S  E S e e    S  s E S  E.  +E   S  S  S  E.
|-----11-9------------||--------9s11--(11)\-------------|
|----------9s11-----7-||-9s11---9s11--(11)\-------------|
|-8----8-6--------8---||-------------------------11-13--|
|-8--------6s=8-----4-||-6s=8-----------------11-11-13--|
|-6---------------6---||--------------------------------|
|---------------------||--------------------------------|

                  |--3---|  |--3--|     |---3----|
    e S  S  a     +E   E  E  E  E  E  a  E  E  a  E
|--------------------------11------------------------|
|--------------------12-14----14-12------------------|
|-11------13b15-(15)----------------13s15----11h13p==|
|-11---11---------------------------------13---------|
|----------------------------------------------------|
|----------------------------------------------------|


   ~~       T       T       T       T
   Q  S S S S     S S     S S     S E.
|---------------------------------6-------|
|-------------------------7---------------|
|-11--------------6-----------------6(18)-|
|---------6-----------------6(18)---------|
|-------6-----------6(18)-----------------|
|-----------7(19)-------------------------|

  T
  E     E  e e S  E s e e   S  E. E  E   E  e E e
|---------11-9------------|-----------------------|
|-7(19)--------9s11-----7-|-9s11--------11----9---|
|----------8-6--------8---|-------------11----8---|
|--------------6s=8-----4-|-6s=8---------9----8---|
|---------------------6---|-----------------------|
|-------------------------|---------11-(11)---9---|

      Gtr II                  Gtr I
              ~            ~
   E E S S S S Q  S S e   a Q  e e  a  E e E e    e e  E  a  E  +E   E a  e E
|----------------------|------------------9---|-11---------------------------|
|-7-------6s7-9--7-6---|-2s4--7-9-10s11---9---|-11---11-12s14-(14)\---9s11---|
|-6------------------6-|------4-6--7s=8---6---|--8---------------------------|
|-6-----6--------------|------4-6-------------|-------8--9s11-(11)\---6s=8---|
|-----4----------------|-----------8s=9-------|------------------------------|
|-7--------------------|----------------------|------------------------------|

   Q.    E  E E e E   +E  E e e a  E  E  e E   Q.   E  e  E e  E
|-2----------2---2-|-(2)--------------------|-2------19-18---16-|
|-4----------4---4-|-(4)-----7-9s11s12s11---|-2--------------16-|
|-4----------4---4-|-(4)---8----------------|-4------20-18------|
|-4----------4---4-|-(4)-----4-6s=8s=9s=8---|-4------18-16---18-|
|----------------4-|-(4)---6----------------|-------------------|
|-4----(4)-4-------|----------------------4-|-4-----------------|

   E  e  E  E  +E  E  E e    Q   +E   E e E e E
|---14--------------13---|-14--(14)\---2-2---2-|
|---14----16-(16)--------|-12--(12)\---4-4---4-|
|-------------------13---|-11--(11)\---4-4---4-|
|---16----16-(16)--------|-------------4-4---4-|
|------------------------|-11--(11)\---------4-|
|------16---------9------|-------------4-4-----|

                          ~~
  +E  E S  S  S  S  a  E  E  +E   S  S
|-(2)----------------------------------|
|-(4)----------------------------------|
|-(4)--------------11h13-11-(11)-10----|
|-(4)--------11-13------------------11-|
|-(4)-----13---------------------------|
|--------------------------------------|

                                Gtr II
   Q  E E  a  E E e E   Q  +Q   S  S  S  S  S  S  S  S
|-----------------9---|-6--(6)-------------------14-16-||
|-----7-9-10s11---9---|-4--(4)----------------16-------||
|-----4-6--7s=8---6---|-----------------11-15----------||
|-13--4-6--7s=8-------|-6--(6)----11h13----------------||
|---------------------|--------------------------------||
|-------------------6-|-6--(6)-------------------------||


 Guitar Solo
   ~~        ~~
   Q   S  S  E  +E  S  S  S  S  S  S
|-18--16-14-16-(16)------------14h18-|
|---------------------------16-------|
|---------------------13-15----------|
|------------------------------------|
|------------------------------------|
|------------------------------------|

   ~~                                   ~~                          ~~
    Q   e  a      +E   +E   S     +S  E  E    +E   S  S  S  S  S  S  Q   S  S  E
|-16--------------------------------------|-------------------------------------|
|-----19-19b21==(21)-(21)r19b21-(21)---16-|-(16)-------16-16-------16-----------|
|-----------------------------------------|------18-15-------18-15-----18----15-|
|-----------------------------------------|-------------------------------18----|
|-----------------------------------------|-------------------------------------|
|-----------------------------------------|-------------------------------------|

   +E   S  S  S  S  S  S  S  S  S  S  S   S   S  S
|--------------------------------------------------|
|------------------14-16-14------------------------|
|-(15)-------13-15----------15-13------------------|
|---------------------------------16-13-(11)-------|
|--------------------------------------------------|
|------16-18---------------------------------14-11-|

                              ~~
   a      +Q    +S   S  S  S  Q  S  S S  S
|------------------------------------------|
|------------------------------------------|
|-13b15==(15)r=(13)-11-------11------------|
|----------------------13----------13------|
|------------------------------------------|
|-------------------------11----------9h11-|

                    ~~                    ~~
   S  S  S  S  S  s  E E  a      +E   +e   E
|---------------11-14---16b18==(18)r(16)-15-|
|------------11-----------------------------|
|---------11--------------------------------|
|------13-----------------------------------|
|-9-13--------------------------------------|
|-------------------------------------------|

                                   |--3--|  |--3--|
    +S   S  S  S  S  S  S  S  S  S  S  S  S  S  S  S  E
|-(15)-11-13----11----------------12p11----11----------|
|------------13----11-13----11----------14----14p12-11-|
|------------------------12----13----------------------|
|------------------------------------------------------|
|------------------------------------------------------|
|------------------------------------------------------|

                          ~~
   +E   S  S  S  S  S  S  Q   S  S  S S
|---------------------------------------|
|-(11)----14-11--------------10---------|
|------13-------11--------------11------|
|------------------12--------------12-9-|
|---------------------14-13-------------|
|---------------------------------------|

   ~~
   Q   S  S   E  +E   S  S  E  S  S
|-----------------------------------|
|-----------------------------------|
|-13--------/13-(13)-10-------------|
|-----13p11-------------11----------|
|--------------------------13-------|
|-----------------------------11-14-|

                          ~~~~
                                         |--3--|
   S  S  S  S  e  S      +S   +Q    +E   S  S  S
|---------------------------------------16-15----|
|-------------16-14b16==(16)-(16)--(16)-------16-|
|----------15------------------------------------|
|-------13---------------------------------------|
|-11s13------------------------------------------|
|------------------------------------------------|

   |------6-------|  |--3--|
   S  S  S  S  S  S  S  S  S  T  T  T  T  +Q     S  T  T  T  T  T  t
|--------------------------------------------------------16-21-18-16-|
|-18-----------------------------------------------16h19-------------|
|----17p15-------15p13-------------------------/18-------------------|
|----------18p15-------15p13-----------------------------------------|
|----------------------------15p13-----------------------------------|
|----------------------------------15p13-(13)------------------------|

                                      |--3--|
  T  T  T  T  T  T  T  T  T  T  T  T  S  S  S  T  T  T  T  T  T  T  T  T  T  T  T e
|---18-16-14----14----------11--------------------------------------------------|
|------------16----16-14-------14-11----------14-11-----------------------------|
|------------------------15----------13-11----------13-11-13p11-----------------|
|------------------------------------------13-------------------13p11-----------|
|---------------------------------------------------------------------13p11-----|
|---------------------------------------------------------------------------3p11|

                                   ~~~~~
   a      +E   S  S  S  s  a      +E   +Q   E   S  s
|----------------------------------------------------|
|-14b16==(16)-------------14b16==(16)r(14)--------16-|
|-------------14-13p11------------------------/15----|
|----------------------13----------------------------|
|----------------------------------------------------|
|----------------------------------------------------|

                                        ~~
    a      +Q.    +E   +Q    +S       s  E
|-14b16==(16)r==(14)-(14)--(14)b14.5------|
|--------------------------------------16-|
|-----------------------------------------|
|-----------------------------------------|
|-----------------------------------------|
|-----------------------------------------|
                          ~~
   +E   S  S  S  S  S  S  Q  E  a      +E
|---------------15-16s18-------------------|
|-(16)-------16----------16----18b19==(19)-|
|---------15-------------------------------|
|------------------------------------------|
|------15----------------------------------|
|------------------------------------------|
    +E   +E   e  S      +S   +E   e  E  E
|----------------------------------------|
|-(19)r(18)-16-14b16==(16)r(14)----------|
|----------------------------------------|
|----------------------------------------|
|-------------------------------11-13s14-|
|----------------------------------------|

   ~~            ~~~~        ~~                                ~~~~
   Q   a  E  E  +E   a  E e  E    +E   a  E      +S   +s   E  +Q   E  S  S
|------------------------------|-------------------------------------------|
|------------------------------|-------------------------------------------|
|-11--13s15s13-(13)---------11-|-(11)-13s15b16==(16)r(15)-13-(13)----------|
|-------------------11h13------|-------------------------------------11s13-|
|------------------------------|-------------------------------------------|
|------------------------------|-------------------------------------------|

                              ~~
    Q   a  e  E  +E   a  E  e  E
|-------------------------------|
|-----12s11------------------14-|
|-11--------13-(13)-------11----|
|-------------------11h13-------|
|-------------------------------|
|-------------------------------|

                   ~~                                   ~
   +H.      E E    Q   a  E  E e  E e  E   E a  E  a  e E +Q    E  e
|---------------|------------------------|---------------------------||
|-(14)----------|------------------------|---9s11s12s11-9-(9)--/9----||
|---------------|-11--13s15s13--------11-|------------------------11-||
|-----------8s9-|----------------13------|---------------------------||
|---------------|------------------------|---------------------------||
|---------------|------------------------|---------------------------||

 .
         ~~~                                             ~~
   E  a  Q.    +H       E   S  S  e  E  +E   e s  S e    W
|---------------------|-------------------------------|-------|
|-11s10s11----(11)----|---/15s13s15---------16---18---|-19----|
|---------------------|-------------15-(15)-----------|-------|
|---------------------|-------------------------------|-------|
|---------------------|-------------------------------|-------|
|---------------------|-------------------------------|-------|

                                           ~~
  E   E  e  e  a  E. S  q      Q   e  S S  H      Q    E  S  S  Q   a  e e
|----------16--------------|--------------------|--------------------------|
|-------16----16s18s17-----|------14-11s9s11----|----/15-------------------|
|---/15----------------18--|-/13----------------|--------15s14-13s=14s13---|
|--------------------------|--------------------|--------------------------|
|--------------------------|--------------------|--------------------------|
|--------------------------|--------------------|--------------------------|

   ~~                                ~
    W           +H     E  E +S  s e   W          E   e  S  s  E  +E   e S  s E
|-----------|----------------------|----------|---------------------11---13----|
|-----------|----------------------|-6--------|---/15-14s13-11-(11)------------|
|-11--------|-(11)-------------8---|----------|--------------------------------|
|-----------|-----------/8-(8)-----|----------|--------------------------------|
|-----------|----------------------|----------|--------------------------------|
|-----------|----------------------|----------|--------------------------------|

   ~~                                                     ~~
   W          E   E  e  e  a  E  E  Q      E.  s E  S  S  H
|-14--------|----------16--------------|-----------------------|
|-----------|-------16----16s18s17-----|-----------------------|
|-----------|---/15----------------18--|------18---15s13s15----|
|-----------|--------------------------|-/18-------------------|
|-----------|--------------------------|-----------------------|
|-----------|--------------------------|-----------------------|

                                      Gtr I
                              ~~~
    +Q   E E   E e  a  E  E    H.        Q      E   E   E   E   +Q.   E
|--------------------------|----------------|-14-----------------------||
|-----------/14------------|----------------|---------14---------------||
|-(15)------------13s15s13-|-11-------[13]--|--------------------------||
|---------x----------------|----------------|----[12]------------------||
|--------------------------|----------------|------------[14]-(14)-----||
|--------------------------|----------------|--------------------------||

  Q   e E +E  S S e E   +E  e a      +S  +S  E H
|-6-----------------6-|-(6)-7-----------------------|
|-----9-7-(7)-----7---|-------9b11==(11)r(9)---7----|
|---6---8-(8)-6h8---6-|-(6)-----------6-------------|
|-8-----------9-------|------------------------9----|
|---------------------|-----------------------------|
|---------------------|-----------------------------|
  E e E E +E  E   E E   +Q            Q        H

   Q    S S E +E  S S e E   +Q.   E +E  Q.     Q    a E E +E  S S e E
|-6----------------------|-------------9----|-6--------------------6-|
|-----10s9-7-(7)-----7-7-|-(7)---7-(7)------|-----10s9-7-(7)-----7---|
|---6------8-(8)-6s8-----|------------------|---6------8-----6h8---6-|
|-8--------------9-----8-|-(8)---9-(9)------|-8--------------9-------|
|------------------------|------------------|------------------------|
|------------------------|------------------|------------------------|
  E e  E   E +E  Q     E   +Q.   E +H         E E    E E  E  E   E E

             T
                                                    |--3--|
  +E  E E E  H           Q  e E +Q.    E    H    E  S  S  S  Q
|-(6)-9---9------------|-9----9-(9)-------|-4----4---------------|
|----------------------|-7----7-(7)-------|-6----6---------------|
|-(6)--------8(20)-----|------------------|-6----6-!x------------|
|---------9-(9)------8-|-8----9-(9)-------|-6----6----!x---------|
|----------------------|------------------|--------------!x------|
|----------------------|--------------(6)-|-6----6----------!x---|
  +Q.     E +Q.      E

   Q.   S S S S e e E   +E  E e e a  E  E  e E   H    E E E E
|-2------------2---2-|-(2)--------------------|-2----2-----2-|
|-4------------4---4-|-(4)-----7-9s11s12-11---|-2----2-----4-|
|-4------------4---4-|-(4)---8----------------|-4----4-6---4-|
|-4------------4---4-|-(4)-----4-6s=8s=9--8---|-4----4-----4-|
|------------------4-|-(4)---6----------------|------------4-|
|-4----x-x-4-4-------|----------------------4-|-4----4-6-----|

   +Q    e  a  E  +E   e S  s E   Q  +E. S E e E E
|-(2)----------------11--------|-2--(2)-----2---2-|
|-(4)--11-12s14-(14)----9s11---|-4--(4)-----4---4-|
|-(4)-----------------8--------|-4--(4)-----4---4-|
|-(4)---8--9s11-(11)----6s=8---|-4--(4)-----4---4-|
|-(4)--------------------------|----------------4-|
|------------------------------|-4--(4)-4-4-------|

                    |--3---|
  +E  S  S  a      +E   E  E  a     +S   E  +S   S  S  S  S
|-(2)---------------------11--------------------------------|
|-(4)------------------14----14b16-(16)---------------------|
|-(4)------13b15==(15)------------------13r(13)-13p11-------|
|-(4)---11--------------------------------------------13p11-|
|-(4)-------------------------------------------------------|
|-----------------------------------------------------------|


                                      Guitar Solo
                                    Gtr II
   ~~
    Q   E  E E e E E   +Q   e E H        S  S  E  S  S  E  +Q    S  S E
|-----------------2-|-(2)--2---4----||----------13-14-------------11p9-|
|-----------------4-|-(4)--4---6----||-------16-------16-(16)s=12------|
|-11----------6---4-|-(4)--4---6----||---------------------------------|
|-----13\---------4-|-(4)--4---6----||----16---------------------------|
|-----------------4-|-(4)-----------||-14------------------------------|
|-------------6-----|--------6-6----||---------------------------------|


                ~~                            ~~                  ~
  +E  E   E  E  Q  E  S S   E.  S  S  S  S S  Q  E  S S   E  E  E E +H
|-(9)---------------------|----------------9-14---------|------------------|
|-----9-------------------|-------11s12-14--------------|------11p9-(9)----|
|-------/13---------------|-----------------------------|---11-------------|
|-----------13s11---------|----11---------------------8h|=9----------------|
|-----------------------8s|=9----------------------11---|------------------|
|--------------------11---|-----------------------------|------------------|


                         ~~~~
    S S S  S S S  S  S  +Q    +S   S  S  S
|--------------9---------------------------|
|------------9---12p11-(11)--(11)----11h12-|
|-------8-11-------------------------------|
|-----9---------------------------13-------|
|------------------------------------------|
|-/11--------------------------------------|


                              ~~                    ~~
   S  S  S  S  S  S  S  a  S  H      S S S S S S S  S  +Q.     S S
|----14p11-------------------------|-------------------------------|
|-14-------14-12p11----------------|-------------7-11-(11)---------|
|-------------------13-14s13-11----|-----------8-------------------|
|----------------------------------|-------6-9---------------------|
|----------------------------------|---6-9-----------------------9-|
|----------------------------------|-7-----------------------/11---|

                  |--3--|              |--3--|  |-----6------|   |----6-----|
   a  T  T  T  T  S  S  S  T  T  T  T  S  S  S  E  S  S  S   S   E  S  S  S S
|-------------------------------------------14-16-14------------14-11---------||
|-------------------------------------14-13----------13-14-(11)-------14-11p9-||
|-------------------------------13-16-----------------------------------------||
|----------------------11-13-16-----------------------------------------------||
|-11s13h14p13p11-13-14--------------------------------------------------------||
|-----------------------------------------------------------------------------||


 Outro
        Gtr I
   ~~
    H    E e E E
|---------2---2--|
|---------4---4--|
|-11------4---4--|
|---------4---4--|
|-------------4--|
|---------4------|

   +E  E a E E a  E  E  e E   H    +E  e E e   E  S  S  S  S  e  E E  e E
|-(2)----------------------|-2----(2)-----2-|---12-12s11-11s10-/9---/6---|
|-(4)-------7-9s11s12-11---|-4----(4)-----4-|---10-10s=9--9s=8-/7---/4---|
|-(4)---6s8----------------|-4----(4)-6---4-|----------------------------|
|-(4)-------4-6s=8s=9--8---|-4----(4)-----4-|---12-12s11-11s10-/9---/6---|
|-(4)---4s6----------------|--------------4-|----------------------------|
|------------------------4-|-4----(4)-6-----|----------------------------|

               T
   H    +E  e E E       +Q    e   E e  e   e E   H    +E  e E  E
|-2----(2)-2---------|---------/11---11-------|-2----(2)--------|
|-2----(2)-2---4(16)-|-(4)--11----------/11---|-4----(4)-----^7-|
|-4----(4)-4---4(16)-|-(4)------/8----8-----8-|-4----(4)-6---^4-|
|-4----(4)-4---4(16)-|-(4)---8-----------/8---|-4----(4)-----^4-|
|--------------4(16)-|-(4)------------------6-|--------------^4-|
|-4----(4)-----------|------------------------|----------6------|

                         ~~
  +Q   S  S  S  S  a  E  E  +E   S  S    Q   e  e E e E e
|-------------------------------------|-------------------|
|-(7)---------------------------------|-------------------|
|-(4)-------------11h13-11-(11)-10----|-----11-10-8---6---|
|-(4)-------11-13------------------11-|-13----------8---6-|
|-(4)----13---------------------------|-------------------|
|-------------------------------------|-----11--9-7---6---|

  Q  E e E e E E   Q  E e  E e  E  e     W
|----------------|------4----9----14-|-^16----*|
|-4--4---2---2---|----7---11---16----|-^18----*|
|------3---1---1-|----4---11---16----|-^18----*|
|----------------|-4-------9---14----|-^16----*|
|----------------|----7--------------|--------*|
|-4--3---2---1---|-0-----------------|--------*|
Compositor não encontrado.
Colaboración y revisión:
  • kayan schurhaus
  • Wagner Ben
928 vistas
    • ½ Tono
    • A
    • Bb
    • B
    • C
    • Db
    • D
    • Eb
    • E
    • F
    • F#
    • G
    • Ab
  • Agregar a la lista

    0 comentarios

    Ver todos los comentarios

    ¿Lograste tocar?

    3 Tocaron 1 Aún no

    ¡Graba un video tocando Manhattan y envíanoslo!

    00:00 / 00:00
    Outros vídeos desta música
    Repetir Calidad Automático
    Outros vídeos desta música
    00:00 / 00:00
    Automático
    OK